Home » L » Lou Reed »

Lou Reed - Perfect Day Bass

Artists:  A B C D E F G H I J K L M N O P Q R S T U V W X Y Z # 

Perfect Day Bass

(ver. 1) Click to play this song!
Lou Reed
Standard tuning E,A,D,G
November 12th 2004
Update November 15th 2004: I just noticed that the version of perfect day I took, isn't
the original version but is performed by several artists, maybe some kind of benefit song or
something
Probably my tab will sound good too on the original song, only the ending will have to
be repeated more.

~ means you have to let the sound go on for a while
Intro (0.00 min)
|-------------------------|
|-------------------------|
|-------------------------|
|-1~----6~----1~----6~----|

Verse 2x (0.10 min)
|--------------------------------------------|
|----------------3-4~-------------------10---|
|-----6~------4~-------6~--6-8--10--12-------|
|-6~-----6-4~--------------------------------|

Chorus (0.51 min)
|--------------------------------------------------------------------------|
|--------------------------------------------------------------------------|
|---5~-6~---5~---6~--6-5---------6-8~-10-10--8—-6--6-8--10-10---8-8-6~---6~|
|-6~---------------------8-6~--8-------------------------------------------|

Verse (1.19 min)
|---------------------------------------------|
|----------------------------------------10---|
|----6~--------4~--------6~--6-8--10--12------|
|-6~----8-6-4~----6-4-2~----------------------|

|---------------------------------------------|
|---------------------3-4~-----------------10-|
|------6~--------4~--4-----6~--6-8--10--12----|
|-6~-6----8-6-4~------------------------------|

Chorus (~1.59 min)
|-----------------------------------------------------------------------|
|-----------------------------------------------------------------------|
|---5~-6~--5~--6~--6-5-------6-8~----8-10~-8--6~-6-8--10-10---8-8-6~-666|
|-6~-------------------8-6~-8-----11------------------------------------|

Bridge 3x, 3rd time other ending (2.25 min)
|------------------------------------|------|
|------------------------------------|------|
|-10~----10----8~----8----6~---6---6-|-6-8--|
|-----11----11----10---10----8---8---|------|

                                     |------|(~2.38 min)
                                     |------|
                                     |-5----|
                                     |---8--|
             
Ending part 1 (2.40 min)
|-------------------|
|-------------------|
|-5~----6~--6-5-----|
|----4~---------8---|

Ending part 2: 4x (~2.47 min)
|--------------------| 
|--------------------| + variations with ghost notes, hammer-on,...
|----------6~--6-5---|
|-6~-5~-4~---------8-|

Ending note (3.28 min)
|----|
|----|
|----|
|-6~-|
            
Submit corrections

↑ Back to top | Tablatures and chords for acoustic guitar and electric guitar, ukulele, drums are parodies/interpretations of the original songs. You may use it for private study, scholarship, research or language learning purposes only