» » »

Lostprophets - Cant Catch Tomorrow Good Shoes Wont Save You This Time Tabs

Artists:  A B C D E F G H I J K L M N O P Q R S T U V W X Y Z # 

Cant Catch Tomorrow Good Shoes Wont Save You This Time Tabs

(ver. 3) Click to play this song!
Lostprophets
 Rating:
4/5 (4 votes)

 Cant Catch Tomorrow Good Shoes Wont Save You This Time lessons Tabs too difficult? Try these video lessons and learn fast
 
                
drop c tuning

this is the best song on lostprophets new album.
i think this tab is pretty much perfect, but i havnt done the second guitar part yet. i 
add it as soon as i have tabbed it out.


intro/verse
|---------------|
|---------------|
|------7---4----|
|--4---7---4----|
|--4---5---2----|
|--4------------|


prechorus
|--------------------------------------------------------------------|
|--------------------------------------------------------------------|
|--7-7-7-7-7-7-7-7-4-4-4-4-4-4-4-4-7-7-7-7-7-7-7-7-4-4-4-4-4-4-4-4---|
|--7-7-7-7-7-7-7-7-4-4-4-4-4-4-4-4-7-7-7-7-7-7-7-7-4-4-4-4-4-4-4-4---|
|--5-5-5-5-5-5-5-5-2-2-2-2-2-2-2-2-5-5-5-5-5-5-5-5-2-2-2-2-2-2-2-2---|
|--------------------------------------------------------------------|


chorus
|--------------------------------------------------------------|
|--------------------------------------------------------------|
|--7--7--7777--------------9--9--9999--11-11-11-11--9-9-9-9----|
|--7--7--7777--7--7--7777--9--9--9999--11-11-11-11--9-9-9-9----|
|--5--5--5555--7--7--7777--7--7--7777---9--9--9--9--7-7-7-7----|
|--------------7--7--7777--------------------------------------|


solo
|--------------------------------------------------------------------|
|---------------------------------------------------------14~--/17---|
|--11~--14~--16~--11~--14--13--------------11~--14~--16~-------------|
|------------------------------14--11--14----------------------------|
|--------------------------------------------------------------------|
|--------------------------------------------------------------------|


outro
|--------------|      |-------------|
|--------------|      |-------------|
|--------------|      |-------------|
|--4--4--4444--| x7   |--4--4--4\---|
|--4--4--4444--|      |--4--4--4\---|
|--4--4--4444--|      |--4--4--4\---|
            
Submit corrections


        Cant Catch Tomorrow Good Shoes Wont Save You This Time lessons Hard to play? Try these video lessons and learn fast Cant Catch Tomorrow Good Shoes Wont Save You This Time lessons
        
↑ Back to top | Tablatures and chords for acoustic guitar and electric guitar, ukulele, drums are parodies/interpretations of the original songs. You may use it for private study, scholarship, research or language learning purposes only