Home » L » Lostprophets »

Lostprophets - Cant Catch Tomorrow Good Shoes Wont Save You This Time Tabs

Artists:  A B C D E F G H I J K L M N O P Q R S T U V W X Y Z # 

Cant Catch Tomorrow Good Shoes Wont Save You This Time Tabs

(ver. 1) Click to play this song!
Lostprophets
 Rating:
4/5 (4 votes)
                Lostprophets - Can't Catch Tomorrow

Drop D

Intro

|----------------------------------------------------------------------------|
|-----------17-------15--15--17-------15--15--17-------15--15--17------------|
|--------------16---------------16---------------16---------------16---------|
|-----14-14-------14---------------14---------------14---------------14------|  X 2 then repeated
|----------------------------------------------------------------------------|
|----------------------------------------------------------------------------|

Duh duh duh duh bit

|--------------------------------------------------------------------------------------|
|--------------------------------------------------------------------------------------|
|--------------------------------------------------------------------------------------|
|--------------------------------------------------------------------------------------|
|--2-2-2-2-2-2-2-2-2-2-2-2-2-2-2-4-5-7-10-10-10-10-10-10-10-10-7-7-7-7-7-7-7-7-9-7-5---|
|--2-2-2-2-2-2-2-2-2-2-2-2-2-2-2-4-5-7-10-10-10-10-10-10-10-10-7-7-7-7-7-7-7-7-9-7-5---|

Verse

|-----------------------|
|-----17--17--17--------|
|-----16--16--16--------| all the way through
|-----14--14--14--------|
|-----------------------|
|-----------------------|

Pre chorus

|-------------------------------------------------------------------|
|-------------------------------------------------------------------|
|--5-5-5-5-5-5-5-5-2-2-2-2-2-2-2-2----------------------------------|
|--5-5-5-5-5-5-5-5-2-2-2-2-2-2-2-2-2-2-2-2-2-2-2-2-5-5-5-5-5-5-5-5--|  x 2
|--3-3-3-3-3-3-3-3-0-0-0-0-0-0-0-0-2-2-2-2-2-2-2-2-5-5-5-5-5-5-5-5--|
|----------------------------------2-2-2-2-2-2-2-2-5-5-5-5-5-5-5-5--|

Chorus

|-------------------------------------------------------------------------------|
|-------------------------------------------------------------------------------|
|--5-5-5-5-5-----------7-7-7-7-7-9-9-7-7-5-5-5-5-5-----------7-7-7-7-7-9-9-7-7--|
|--5-5-5-5-5-5-5-5-5-5-7-7-7-7-7-9-9-7-7-5-5-5-5-5-5-5-5-5-5-7-7-7-7-7-9-9-7-7--|  x 2
|--3-3-3-3-3-5-5-5-5-5-5-5-5-5-5-7-7-5-5-3-3-3-3-3-5-5-5-5-5-5-5-5-5-5-7-7-5-5--|
|------------5-5-5-5-5-----------------------------5-5-5-5-5--------------------|
   v v v v ^ v v v v ^ v v v v ^ v v v v v v v v ^ v v v v ^ v v v v ^ v v v v 

down, down, down, down, up, repeat for the rhythm

Intro

Verse

Pre chorus

Chorus

Solo

|-------------------------------------------------------------------|
|-------------------------------------------------------------------|
|----9~---/12/14---\9~---/12-11-7\4/7/9~---/12-14-16-16~------------|
|-------------------------------------------------------------------|
|-------------------------------------------------------------------|
|-------------------------------------------------------------------|

Over the chords

|-------------------------------------------------------------------|
|-------------------------------------------------------------------|
|--5-5-5-5-5-5-5-5-2-2-2-2-2-2-2-2----------------------------------|
|--5-5-5-5-5-5-5-5-2-2-2-2-2-2-2-2-2-2-2-2-2-2-2-2-2-2-2-2-2-2-2-2--|  x 2
|--3-3-3-3-3-3-3-3-0-0-0-0-0-0-0-0-2-2-2-2-2-2-2-2-2-2-2-2-2-2-2-2--|
|----------------------------------2-2-2-2-2-2-2-2-2-2-2-2-2-2-2-2--|

Then


|-------------------------------------------------------------------|
|-------------------------------------------------------------------|
|-------------------------------------------------------------------|
|--2----2-------------2-----2---------------------------------------|
|--2----2-------------2-----2---------------------------------------|
|--2----2-------------2-----2---------------------------------------|

Pre chorus

Chorus
            
Submit corrections

↑ Back to top | Tablatures and chords for acoustic guitar and electric guitar, ukulele, drums are parodies/interpretations of the original songs. You may use it for private study, scholarship, research or language learning purposes only