» » »

Lostprophets - Bring Em Down Tabs

Artists:  A B C D E F G H I J K L M N O P Q R S T U V W X Y Z # 

Bring Em Down Tabs

(ver. 3) Click to play this song!
Lostprophets
 Rating:
4/5 (4 votes)

 Bring Em Down lessons Tabs too difficult? Try these video lessons and learn fast
 
                -------------------------------------------------------------------------------
                             Bring 'Em Down - Lostprophets
-------------------------------------------------------------------------------
7th Feb 2012


Tuning: Drop D (Rhythm Guitar) + (Lead Guitar)

Intro: Lead
e|----------------------------------------------------------------|
B|----------------------------------------------------------------|
G|-8-8-11-8---8-8-11-8---8-8-11-8--8-8-10-10-10-------------------|
D|----------------------------------------------------------------| x10
A|----------------------------------------------------------------|
D|----------------------------------------------------------------|


Intro: Rhythm
e|----------------|
B|----------------|
G|----------------|
D|-1-1-4-1--------| x4
A|-1-1-4-1--------|
D|-1-1-4-1--------|

Verse: Lead


e|------------------|
B|------------------|
G|-11-11-10-10-10---|
D|------------------| x3
A|------------------|
D|------------------|

e|----------------------------------------------------------------|
B|----------------------------------------------------------------|
G|-8-8-11-8---8-8-11-8---8-8-11-8--8-8-10-10-10-------------------|
D|----------------------------------------------------------------| x8 (Palm Muted)
A|----------------------------------------------------------------|
D|----------------------------------------------------------------|

Verse: Rhythm

e|----------------|
B|----------------|
G|----------------|
D|-1-1-4-1--------| x4
A|-1-1-4-1--------|
D|-1-1-4-1--------|

e|---------------------------------------------------------------------------|
B|---------------------------------------------------------------------------|
G|---------------------------------------------------------------------------|
D|-4-4-6-4--6-6-4-6--1-1-4-1--1-1-4-1----------------------------------------|
A|-4-4-6-4--6-6-4-6--1-1-4-1--1-1-4-1----------------------------------------|
D|-4-4-6-4--6-6-4-6--1-1-4-1--1-1-4-1----------------------------------------|

Pre-Chorus: Lead

e|-----------------|
B|-11-10-----------|
G|-------11-10-8---|
D|-----------------| x2 (Trem Picked)
A|-----------------|
D|-----------------|

Pre-Chorus: Rhythm
e|-------------------|
B|-------------------|
G|-------------------|
D|-4-3-1--4-6-1------|
A|-4-3-1--4-6-1------|
D|-4-3-1--4-6-1------|


Chorus: Rhythm
e|-------------------------------------------|
B|-------------------------------------------|
G|-------------------------------------------|   x2
D|-9--------11--------1---4------------------| 
A|-9-x16----11-x16----1---4-x16--------------|
D|-9--------11--------1---4------------------|

e|--------------------------------------|
B|--------------------------------------|
G|--------------------------------------|
D|-4-4-6-4--6-6-4-6--1-1-4-1--1-1-4-1---| x2
A|-4-4-6-4--6-6-4-6--1-1-4-1--1-1-4-1---|
D|-4-4-6-4--6-6-4-6--1-1-4-1--1-1-4-1---|

Verse 2: Lead

e|------------------|
B|------------------|
G|-11-11-10-10-10---|
D|------------------| x3
A|------------------|
D|------------------|

e|----------------------------------------------------------------|
B|----------------------------------------------------------------|
G|-8-8-11-8---8-8-11-8---8-8-11-8--8-8-10-10-10-------------------|
D|----------------------------------------------------------------| x8 (Palm Muted)
A|----------------------------------------------------------------|
D|----------------------------------------------------------------|

Verse 2: Rhythm
e|----------------|
B|----------------|
G|----------------|
D|-1-1-4-1--------| x4
A|-1-1-4-1--------|
D|-1-1-4-1--------|

e|---------------------------------------------------------------------------|
B|---------------------------------------------------------------------------|
G|---------------------------------------------------------------------------|
D|-4-4-6-4--6-6-4-6--1-1-4-1--1-1-4-1----------------------------------------|
A|-4-4-6-4--6-6-4-6--1-1-4-1--1-1-4-1----------------------------------------|
D|-4-4-6-4--6-6-4-6--1-1-4-1--1-1-4-1----------------------------------------|

Pre-Chorus: Lead

e|-----------------|
B|-11-10-----------|
G|-------11-10-8---|
D|-----------------| x2 (Trem Picked)
A|-----------------|
D|-----------------|

Pre-Chorus: Rhythm
e|-------------------|
B|-------------------|
G|-------------------|
D|-4-3-1--4-6-1------|
A|-4-3-1--4-6-1------|
D|-4-3-1--4-6-1------|

Chorus: Rhythm
e|--------------------------------------------|
B|--------------------------------------------|
G|--------------------------------------------|   
D|-9--------11--------1---4-------------------| 
A|-9-x16----11-x16----1---4-x16---------------|
D|-9--------11--------1---4-------------------|

e|--------------------------------------------|
B|--------------------------------------------|
G|--------------------------------------------|   
D|-9--------11--------1-----------------------| 
A|-9-x16----11-x16----1-----------------------|
D|-9--------11--------1-----------------------|

Bridge: Lead (Not sure on this bit.)

e|------------9s11-11-11-11---|
B|----------------------------|
G|-8-8-8-8-8------------------|
D|----------------------------| x6
A|----------------------------|
D|----------------------------|

e|-----------------|
B|-11-10-----------|
G|-------11-10-8---|
D|-----------------| x2 (Trem Picked)
A|-----------------|
D|-----------------|

e|----------------------------------------------------------------|
B|----------------------------------------------------------------|
G|-8-8-11-8---8-8-11-8---8-8-11-8--8-8-10-10-10-------------------|
D|----------------------------------------------------------------| 
A|----------------------------------------------------------------|
D|----------------------------------------------------------------|

Bridge: Rhythm
e|---------------------------------------------------------------------------|
B|---------------------------------------------------------------------------|
G|---------------------------------------------------------------------------|
D|-----------------------------------------------------------X10-------------|
A|------------1--2--4--------------------------------------------------------|
D|-1-1-0-1--1--2--4--6-6-----------------------------------------------------|

e|-------------------|
B|-------------------|
G|-------------------|
D|-4-3-1--4-6-1------|     x2
A|-4-3-1--4-6-1------|
D|-4-3-1--4-6-1------|


************************************

| /   slide up
| \   slide down
| h   hammer-on
| p   pull-off
| ~   vibrato
| +   harmonic
| x   Mute note
| b   Bend
| pb  Pre-bend
| br  Bend release
| pbr Pre-bend release
| brb Bend release bend

************************************
            
Submit corrections


        Bring Em Down lessons Hard to play? Try these video lessons and learn fast Bring Em Down lessons
        
↑ Back to top | Tablatures and chords for acoustic guitar and electric guitar, ukulele, drums are parodies/interpretations of the original songs. You may use it for private study, scholarship, research or language learning purposes only