» » »

Lostprophets - Bring Em Down Tabs

Artists:  A B C D E F G H I J K L M N O P Q R S T U V W X Y Z # 

Bring Em Down Tabs

(ver. 2) Click to play this song!
Lostprophets
 Rating:
4/5 (4 votes)

 Bring Em Down lessons Tabs too difficult? Try these video lessons and learn fast
 
                ==================================================================
==================================================================

 DROP C#

 INTRO
  
 lead
|---------------------------------|
|-5-5-8-5-5-5-8-5-5-5-8-5-5-7-7-7-|
|---------------------------------| 4x
|---------------------------------|
|---------------------------------|
|---------------------------------|


 VERSE 

 lead
|---------------------------------|
|-5-5-8-5-5-5-8-5-5-5-8-5-5-7-7-7-|
|---------------------------------| 8x
|---------------------------------|
|---------------------------------|
|---------------------------------|

 
 rhythm  *instrumental*
|---------|
|---------|
|---------| 4x  
|-2-2-0-2-|
|-2-2-0-2-|
|-2-2-0-2-|

 
 lead
|---------------------------------|
|-5-5-8-5-5-5-8-5-5-5-8-5-5-7-7-7-|
|---------------------------------| 8x
|---------------------------------|
|---------------------------------|
|---------------------------------|
 
 
 rhythm
|---------|
|---------|
|---------| 4x  
|-2-2-0-2-|
|-2-2-0-2-|
|-2-2-0-2-|

|------------------------------------|
|------------------------------------|
|------------------------------------|
|-5-5-4-5--4-4-2-4--2-2-0-2--2-2-0-2-|
|-5-5-4-5--4-4-2-4--2-2-0-2--2-2-0-2-|
|-5-5-4-5--4-4-2-4--2-2-0-2--2-2-0-2-|

|------------------------------------|
|------------------------------------|
|------------------------------------|
|-5-5-4-5--7-7-5-7--2-2-0-2--2-2-0-2-|
|-5-5-4-5--7-7-5-7--2-2-0-2--2-2-0-2-|
|-5-5-4-5--7-7-5-7--2-2-0-2--2-2-0-2-|

|---------------------------------------|
|---------------------------------------|
|---------------------------------------|
|-5~----4~----2~---------5~----7~----2~-|
|-5~----4~----2~---------5~----7~----2~-|
|-5~----4~----2~---------5~----7~----2~-|


 CHORUS 2x

|-----------------------------------------|
|-----------------------------------------|
|-5-5-5-5-5-5-5-5-5-5---------------------|
|-5-5-5-5-5-5-5-5-5-5-0-0-0-0-0-0-0-0-0-0-|
|-3-3-3-3-3-3-3-3-3-3-0-0-0-0-0-0-0-0-0-0-|
|---------------------0-0-0-0-0-0-0-0-0-0-|

|-----------------------------------------|
|-----------------------------------------|
|-----------------------------------------|
|-2-2-2-2-2-2-2-2-2-2-2-2-2-2-2-2-2-2-2-2-|
|-2-2-2-2-2-2-2-2-2-2-2-2-2-2-2-2-2-2-2-2-|
|-2-2-2-2-2-2-2-2-2-2-2-2-2-2-2-2-2-2-2-2-|


 
 POST CHORUS

|------------------------------------|
|------------------------------------|
|------------------------------------|
|-5-5-4-5--4-4-2-4--2-2-0-2--2-2-0-2-|
|-5-5-4-5--4-4-2-4--2-2-0-2--2-2-0-2-|
|-5-5-4-5--4-4-2-4--2-2-0-2--2-2-0-2-|

|------------------------------------|
|------------------------------------|
|------------------------------------|
|-5-5-4-5--7-7-5-7--2-2-0-2--2-2-0-2-|
|-5-5-4-5--7-7-5-7--2-2-0-2--2-2-0-2-|
|-5-5-4-5--7-7-5-7--2-2-0-2--2-2-0-2-|


 
 VERSE

 lead
|---------------------------------|
|-5-5-8-5-5-5-8-5-5-5-8-5-5-7-7-7-|
|---------------------------------| 8x
|---------------------------------|
|---------------------------------|
|---------------------------------|
 
 rhythm
|---------|
|---------|
|---------| 4x  
|-2-2-0-2-|
|-2-2-0-2-|
|-2-2-0-2-|

|------------------------------------|
|------------------------------------|
|------------------------------------|
|-5-5-4-5--4-4-2-4--2-2-0-2--2-2-0-2-|
|-5-5-4-5--4-4-2-4--2-2-0-2--2-2-0-2-|
|-5-5-4-5--4-4-2-4--2-2-0-2--2-2-0-2-|

|------------------------------------|
|------------------------------------|
|------------------------------------|
|-5-5-4-5--7-7-5-7--2-2-0-2--2-2-0-2-|
|-5-5-4-5--7-7-5-7--2-2-0-2--2-2-0-2-|
|-5-5-4-5--7-7-5-7--2-2-0-2--2-2-0-2-|

|---------------------------------------|
|---------------------------------------|
|---------------------------------------|
|-5~----4~----2~---------5~----7~----2~-|
|-5~----4~----2~---------5~----7~----2~-|
|-5~----4~----2~---------5~----7~----2~-|



 CHORUS 4x

|-----------------------------------------|
|-----------------------------------------|
|-5-5-5-5-5-5-5-5-5-5---------------------|
|-5-5-5-5-5-5-5-5-5-5-0-0-0-0-0-0-0-0-0-0-|
|-3-3-3-3-3-3-3-3-3-3-0-0-0-0-0-0-0-0-0-0-|
|---------------------0-0-0-0-0-0-0-0-0-0-|

|-----------------------------------------|
|-----------------------------------------|
|-----------------------------------------|
|-2-2-2-2-2-2-2-2-2-2-2-2-2-2-2-2-2-2-2-2-|(exclude this on the 4th time)
|-2-2-2-2-2-2-2-2-2-2-2-2-2-2-2-2-2-2-2-2-|
|-2-2-2-2-2-2-2-2-2-2-2-2-2-2-2-2-2-2-2-2-|



 BRIDGE  *follow the sequence below 

 I
|-----------------------------|
|-----------------------------|
|-----------------------------|
|-----------------------------| 
|--------------2----3----5----|
|-0-2-2-0-2--2---3----5-----7-|

 II
|------------------|
|------------------|
|------------------|
|------------------| 
|--------------2---|
|-0-2-2-0-2--2---3-|

 III
|-----------------------------|
|-----------------------------|
|-----------------------------|
|-----------------------------| 
|--------------2----3---------|
|-0-2-2-0-2--2---3----5--0h2--|

 IV
|-----------------------------|
|-----------------------------|
|-----------------------------|
|-----------------------------| 
|--------------2----3---------|
|-0-2-2-0-2--2---3----5-------|



 I 3x
 II
 I
 III
 I
 IV
 I
 III
 I
 III
 I
 III
 I
 IV


 OUTRO

|---------------------------------------|
|---------------------------------------|
|---------------------------------------|
|-5~----4~----2~---------5~----7~----2~-|
|-5~----4~----2~---------5~----7~----2~-|
|-5~----4~----2~---------5~----7~----2~-|
            
Submit corrections


        Bring Em Down lessons Hard to play? Try these video lessons and learn fast Bring Em Down lessons
        
↑ Back to top | Tablatures and chords for acoustic guitar and electric guitar, ukulele, drums are parodies/interpretations of the original songs. You may use it for private study, scholarship, research or language learning purposes only