» » »

Lostprophets - 4 Am Forever Tabs

Artists:  A B C D E F G H I J K L M N O P Q R S T U V W X Y Z # 

4 Am Forever Tabs

(ver. 3) Click to play this song!
Lostprophets
 Rating:
4.6/5 (11 votes)

 4 Am Forever lessons Tabs too difficult? Try these video lessons and learn fast
 
                Hey Guys. This is a tab for 4 am Forever in DROP D. This is my own work and I spent a 
time figuring it out so plz leave comments. I’m only 13 so don’t be too harsh though. This 
exactly how they play it but it’s as close as I could get. Enjoy!

Sorry, you have to figure out the strumming yourself, but I've shown how many times to 
the note/chord.

Intro
|---------------------------------------|
|---------------------------------------|
|---11-----15------10-------------------|
|---x-------x-------x-------------------|
|---9------13-------8-------------------|
|---------------------------------------|
    x16    x3      x16


Pre-Chorus
|---------------------|---------------------|
|---------------------|---------------------|
|---4~----6~----------|---4~----6~----8~----|
|---4~----6~----1~----|---4~----6~----8~----|
|---2~----4~----1~----|---2~----4~----6~----|
|---------------1~----|---------------------|


Verse 1
|---------------------------------------|
|---------------------------------------|
|---11-----15------10-------------------|
|---x-------x-------x-------------------|
|---9------13-------8-------------------|
|---------------------------------------|
    x16    x3      x16


Pre-Chorus
|---------------------|---------------------|
|---------------------|---------------------|
|---4~----6~----------|---4~----6~----8~----|
|---4~----6~----1~----|---4~----6~----8~----|
|---2~----4~----1~----|---2~----4~----6~----|
|---------------1~----|---------------------|


Verse 2
|---------------------------------------|
|---------------------------------------|
|---11--/--15----10---------------------|
|---x---/---x-----x---------------------|
|---9---/--13-----8---------------------|
|---------------------------------------|
    x6     x1    x6


Pre-Chorus
|---------------------|---------------------|
|---------------------|---------------------|
|---4~----6~----------|---4~----6~----8~----|
|---4~----6~----1~----|---4~----6~----8~----|
|---2~----4~----1~----|---2~----4~----6~----|
|---------------1~----|---------------------|


Chorus
|--------------------------------|
|--------------------------------|
|----------4-----------6---------|
|----1-----4-----4-----6---------|
|----1-----2-----4-----4---------|
|----1-----------4---------------|
    x7    x7     x7    x7


Post-Chorus
|-------------------------|---------------------|
|-------------------------|---------------------|
|---4-----6---------------|---4-----6-----8-----|
|---4-----6-----1----4----|---4-----6-----8-----|
|---2-----4-----1----4----|---2-----4-----6-----|
|---------------1----4----|---------------------|
   x8    x8    x8   x8       x8    x8    x16


Verse 3
|---------------------------------------|
|---------------------------------------|
|---11--/--15----10---------------------|
|---x---/---x-----x---------------------|
|---9---/--13-----8---------------------|
|---------------------------------------|
    x6     x1    x6


Pre-Chorus
|---------------------|---------------------|
|---------------------|---------------------|
|---4~----6~----------|---4~----6~----8~----|
|---4~----6~----1~----|---4~----6~----8~----|
|---2~----4~----1~----|---2~----4~----6~----|
|---------------1~----|---------------------|


Bridge (played at half the speed of post-chorus, if that helps =D)
|-------------------------|---------------------|
|-------------------------|---------------------|
|---4-----6---------------|---4-----6-----8-----|
|---4-----6-----1----4----|---4-----6-----8-----|
|---2-----4-----1----4----|---2-----4-----6-----|
|---------------1----4----|---------------------|
   x8    x8    x8   x8       x8    x8    x16


Solo
|-------------------------------------------|
|---11---11---11------7-9-7-11-9-7----------|
|---11b--11b--11b---------------------------|
|-------------------------------------------|
|-------------------------------------------|
|-------------------------------------------|

|---------------------------------------4-6-/-11-11-11-9--------|
|-----7--------------------------------------------------11-----|
|---8---8-----6-8-6-----3-6-3-----------------------------------|
|-------------------------------------6-------------------------|
|---------------------------------------------------------------|
|---------------------------------------------------------------|

|---9-11--11-/-16-16---18-16-14---16-14-------------------|
|---------------------------------------16----------------|
|---------------------------------------------------------|
|---------------------------------------------------------|
|---------------------------------------------------------|
|---------------------------------------------------------|

|---18p16p14----18p16p14----18p16p14------|
|------------16----------16---------------|
|-----------------------------------------|
|-----------------------------------------|
|-----------------------------------------|

|---20p18p16----20p18p16----20p18p16----------------|
|------------16----------16-------------------------|
|---------------------------------------------------|
|---------------------------------------------------|
|---------------------------------------------------|
|---------------------------------------------------|

|-------------------------------------------|
|-------------------------------------------|
|---8---6---3-------------------------------|
|---------------4-------1-3-1---3-----------|
|-----------------------------4---3---------|
|-------------------------------------------|

|---------------------------------------------------------|
|-------------------------------15b~----------------------|
|---------------------------------------------------------|
|---2/4--6-----3--4---------------------------------------|
|-----------------------4--6------------------------------|
|---------------------------------------------------------|


Outro
|-------------------------|---------------------|
|-------------------------|---------------------|
|---4-----6---------------|---4-----6-----8~----|
|---4-----6-----1----4----|---4-----6-----8~----|
|---2-----4-----1----4----|---2-----4-----6~----|
|---------------1----4----|---------------------|
   x8    x8    x8   x8       x8    x8     x1
            
Submit corrections


        4 Am Forever lessons Hard to play? Try these video lessons and learn fast 4 Am Forever lessons
        
↑ Back to top | Tablatures and chords for acoustic guitar and electric guitar, ukulele, drums are parodies/interpretations of the original songs. You may use it for private study, scholarship, research or language learning purposes only