» » »

Lostprophets - 4 Am Forever Tabs

Artists:  A B C D E F G H I J K L M N O P Q R S T U V W X Y Z # 

4 Am Forever Tabs

(ver. 2) Click to play this song!
Lostprophets
 Rating:
3.2/5 (24 votes)

 4 Am Forever lessons Tabs too difficult? Try these video lessons and learn fast
 
                              LOSTPROPHETS 4 AM FOREVER
              LIBERATION TRANSMISSION

DROP D TUNING

INTRO - WITH FINGERS- CLEAN TONE

e|--------------------------------------------------------------------------|
B|-7-7-7-7-7-7-7-7-7-7-11-11-11-6-6-6-6-6-6-6-6-6-6-------------------------|
G|- ------------------------------------------------------------------------|
D|--------------------------------------------------------------------------|
A|-6-6-6-6-6-6-6-6-6-6 9--9--9--4-4-4-4-4-4-4-4-4-4-------------------------|
D|--------------------------------------------------------------------------|

INTERLUDE-PICK AND DISTORTION

e|--------------------------------------------------------------------------|
B|--------------------------------------------------------------------------|
G|-4~-----6~----------------------------------------------------------------|
D|-4~-----6~---1~-----------------------------------------------------------|
A|-2~-----4~---1~-----------------------------------------------------------|
D|-------------1~-----------------------------------------------------------|
VERSE VARIATION- FINGERS- SEPARATE NOTES NOT CHORDS!

e|--------------------------------------------------------------------------|
B|---7----7---7---7--11--6---6---6---6--------------------------------------|
G|--------------------------------------------------------------------------|
D|--------------------------------------------------------------------------|
A|-6---6---6---6---9----4---4---4---4---------------------------------------|
D|--------------------------------------------------------------------------|

CHORUS- DISTORTION- PICK- LISTEN TO RYTHM CAREFULLY

e|--------------------------------------------------------------------------|
B|--------------------------------------------------------------------------|
G|-8-8-8-8-8-8--------------------------------------------------------------|
D|-8-8-8-8-8-8-9-9-9-9-9-9-4-4-4-4-4-4-11-11-11-11-11-11--------------------|
A|-6-6-6-6-6-6-9-9-9-9-9-9-4-4-4-4-4-4-11-11-11-11-11-11--------------------|
D|-------------9-9-9-9-9-9-4-4-4-4-4-4-11-11-11-11-11-11--------------------|

BIT AFTER THE CHORUS- DISTORTION- PICK
e|---------------------------------------------------------------------------|
B|---------------------------------------------------------------------------|
G|-4-4-4-4-4-4-4-4-6-6-6-6-6-6-6-6-------------------------------------------|
D|-4-4-4-4-4-4-4-4-6-6-6-6-6-6-6-6-1-1-1-1-1-1-1-1-3-3-3-3-3-3-3-3-----------|
A|-2-2-2-2-2-2-2-2-4-4-4-4-4-4-4-4 1-1-1-1-1-1-1-1-3-3-3-3-3-3-3-3-----------|
D|-------------------------------- 1-1-1-1-1-1-1-1-3-3-3-3-3-3-3-3-----------|

FIRST CHORUS PLAY ON 2ND TIME INSTEAD OF END OF ABOVE
e|----------------------------------------------------------------------------|
B|----------------------------------------------------------------------------|
G|----------------------------------------------------------------------------|
D|-1~----1-1-1-1-1-1-1-1------------------------------------------------------|
A|-1~----1-1-1-1-1-1-1-1------------------------------------------------------|
D|-1~----1-1-1-1-1-1-1-1------------------------------------------------------|


SOLO 1
e|--------------------------------------------------------------------------B|-14-----14------11-14--|
G|-13(15)-13(13)13-11-14-15-13-11-13-11--11----------------------------------------------------------|
D|-------------------------------------13--13-11-13-11--11-------------------------------------------|
A|----------------------------------------------------13--13-11--------------------------------------|
D|---------------------------------------------------------------------------------------------------|

e|--------------------------------------------14(16)-14(16)-11-14-11-18-16--|
B|-14(16)-14(16)-14-11-14(16)-14(16)-11-14-11-------------------------------|
D|--------------------------------------------------------------------------|
A|--------------------------------------------------------------------------|
D|--------------------------------------------------------------------------|
               PLAYED EXTREMELY FAST!
e|-14-16-14----18p14-16p14-------18p16-16p14-----18p16-16p14-20p14-16p14----|
B|-------------------------16p14------------16p14-----------------------16p-|
G|--------------------------------------------------------------------------|
D|--------------------------------------------------------------------------|
A|--------------------------------------------------------------------------|
D|--------------------------------------------------------------------------|

e|---20p14-16p14---------11--------------------------------------------------|
B|14-------------16p14--------14---11----------------------------------------|
G|---------------------------------------11-11-10--11-13-10-11-6-8-----------|
D|---------------------13---13---13---13-------------------------------------|
A|---------------------------------------------------------------------------|
D|---------------------------------------------------------------------------|
    ANOTHER VERY FAST BIT
e|-15p12--------------------------------------------------------------------|
B|-------15p12-15p12-15p12--------------------------------------------------|
G|--------------------------14p12-14p12-14p12-------------------------------|
D|--------------------------------------------14p12-14p12-14p12-------------|
A|--------------------------------------------------------------14p12-14p12-|
D|--------------------------------------------------------------------------|

e|---------------------------------------------------------------------------|
B|---------14(16)-14(16)-14(16~)---------------------------------------------|
G|---------------------------------------------------------------------------|
D|---------------------------------------------------------------------------|
A|-14p12---------------------------------------------------------------------|
D|---------------------------------------------------------------------------|

SOLO 2

e|--------------------------------------------------------------------------|
B|----------------------------11----------14------14------14------14--------|
G|-------------------11--11-13--13--13(15)---13(15)--13(15)--13(15)---------|
D|--------11---11-13---13---------------------------------------------------|
A|--11-13----13-------------------------------------------------------------|
D|--------------------------------------------------------------------------|
  PM.............................
e|--------------------------------------------------------------------------|
B|-14(16~)------------------------------------------------------------------|
G|--------------------------------------------------------------------------|
D|--------------------------------------------------------------------------|
A|--------------------------------------------------------------------------|
D|--------------------------------------------------------------------------|

FINALE
e|------11-11----11-14-11-11~--17(19)-17(19)-17-15-17-----------------------|
B|-/11--------14------------------------------------------------------------|
G|--------------------------------------------------------------------------|
D|-----------------------------------------------------11-------------------|
A|---------------------------------------------------------13-13-13---------|
D|--------------------------------------------------------------------------|

e|--------------------------------------------------------------------------|
B|--------------------------------------------------------------------------|
G|-13-----------------------------------------------------------------------|
D|---11-13-------11--14~----------------------------------------------------|
A|---------11-13------------------------------------------------------------|
D|--------------------------------------------------------------------------|
  ....................
   RALLANTADO(SLOW DOWN)
THIS IS THE ORDER YOU PLAY THE PARTS IN:

INTR0 X 3
INTERLUDE X 2
INTRO X 2
INTERLUDE X 2
VERSE VARIATION X 3
INTERLUDE X 2
CHORUS X 3
BIT AFTER THE CHORUS X 2(INCLUDING ALTERNATE THING THATS UNDER IT)
VERSE VARIATION X 2
INTERLUDE X 4 (ON 3RD AND 4TH TIMES PLAY SLOWER)
SOLO
CHORUS X 3
SOLO 2
CHORUS X 3
FINALE

THIS IS MY FIRST TAB SO I HOPED YOU LIKED IT.IF NOT FEEL FREE TO FLAME ME. GREAT SONG.
ON!

| \  slide down
| h  hammer-on
| p  pull-off
| ~  hold note
| +  harmonic
| x  Mute note
===============================================================================
            
Submit corrections


        4 Am Forever lessons Hard to play? Try these video lessons and learn fast 4 Am Forever lessons
        
↑ Back to top | Tablatures and chords for acoustic guitar and electric guitar, ukulele, drums are parodies/interpretations of the original songs. You may use it for private study, scholarship, research or language learning purposes only