» » »

Lordi - My Heaven Is Your Hell Tabs

Artists:  A B C D E F G H I J K L M N O P Q R S T U V W X Y Z # 

My Heaven Is Your Hell Tabs

(ver. 1) Click to play this song!
Lordi
 Rating:
4/5 (4 votes)

 My Heaven Is Your Hell lessons Tabs too difficult? Try these video lessons and learn fast
 
                Tuning: Drop D (low to high: D-A-D-G-B-E)

Intro:

E|---------------------------------|
B|---------------------------------|
G|---------------------------------|
D|-------3-x-2---------------------|
A|-2-5-2-1-x-0---2-5-2-x-2-x-2-0---|
D|-2-5-2---------2-5-2-x-2-x-2-0---|



Verse:
Bass + drums


Pre-chorus:

  "Freedom from my life eternal..."
E|-----------------------------------------------------------------|
B|-----------------------------------------------------------------|
G|-7-5-7-----7-5-7---7-5---5-7-----7-5-7-----7-5-7---7-5---5-7-----|
D|-7-5-7-0---7-5-7---7-5-7-5-7-5---7-5-7-0---7-5-7---7-5-7-5-7-3---|
A|-------0---------------7-----5---------0---------------7-----3---|
D|-----------------------------5-------------------------------3---|


E|---------------------------------------------------------------------|
B|---------------------------------------------------------------------|
G|---------------------------------------------------------------------|
D|---------------------------------------------------------------------|
A|-3-3-3-3-3-3-3-3-3-3-3-3-3-3-3-3-5-5-5-5-5-5-5-5-5-5-2-2-2-2-5---5---|
D|-3-3-3-3-3-3-3-3-3-3-3-3-3-3-3-3-5-5-5-5-5-5-5-5-5-5-2-2-2-2-5---5---|
   . . . . . . . .   . .   . .   .   . .   . .   .   



Chorus:
 "My heaven is your hell..."
E|---------------------------------------------------------------|
B|---------------10\-------------3-3---3---3---3---3-------------|
G|---------------9-\-2-x-4-5-2---2-2---2---2---2---2-------------|
D|-7-7---7---7---7-\-2-x-4-5-2---0-0-0-0-0-0-0-0-0-0---2h3-2-0-2-|
A|-7-7-7-7-7-7-7---------------------0---0---0---0-0-------------|
D|-7-7-7-7-7-7-7-------------------------------------------------|
       .   .   .                     .   .   .   .

E|---------------------------------------------------------------------|
B|---------------------------------3-----------------------------------|
G|---------------------------------2-----2-----2-----------------------|
D|-5---------------7-5---3---------0-----0-----0-------2~------5~------|
A|-5---------------7-5-x-3---------0-0-0-0-0-0-0-0---2-------5---------|
D|-5---------------7-5-x-3-----------0-0---0-0---0-2-------5-----------|
                                     . .   . .   .


E|---------------------------------------------------------------|
B|---------------10\-------------3-3---3---3---3---3-------------|
G|---------------9-\-2-x-4-5-2---2-2---2---2---2---2-------------|
D|-7-7---7---7---7-\-2-x-4-5-2---0-0-0-0-0-0-0-0-0-0---2h3-2-0-2-|
A|-7-7-7-7-7-7-7---------------------0---0---0---0-0-------------|
D|-7-7-7-7-7-7-7-------------------------------------------------|
       .   .   .                     .   .   .   .

                                    "By dawn I will be gone"
E|-----------------------------------------------------------------|
B|-----------------------------------------------------------------|
G|---------------------------------2---------------2---------------|
D|-5---------------7-5---3---------0-----0-----5---2---------------|
A|-5---------------7-5-x-3-------3-0-0-0-0-0-0-5---0---------------|
D|-5---------------7-5-x-3-------3-0-0-0-0-0-0-5--------------/12\-|
                                     . .   . .


E|-------------------------------|
B|-------------------------------|
G|-------------------------------|
D|-------------------------------|
A|---2~----3~--2-5-2-2-x-5---0---|
D|-3-----4-----2-5-2-2-x-5---0---|




Verse 2
  "As the morning sun will rise..."
E|-----------------------------------------------------------------|
B|-----------------------------------------------------------------|
G|-------------------------------------2---------------5-----5-7/8-|
D|-2---0-2---------2---0-2---------5-5-0-5-5-5-5-5-7-7-5-7-7-5-7/8-|
A|-2-2-0-2-2-2-2-2-2-2-0-2-2-2-2-2-3-3---3-3-3-3-3-5-5---5-5-------|
D|---2-----2-2-2-2---2-----2-2-2-2---------------------------------|
     .     . . . .   .     . . . .   .     . . . .   .     .



E|-----------------------------------------------------------------|
B|-----------------------------------------------------------------|
G|-------------------------------------2---------------------------|
D|-2---0-2---------2---0-2---------5-5-0-5-5-5-5-5----rest---------|
A|-2-2-0-2-2-2-2-2-2-2-0-2-2-2-2-2-3-3---3-3-3-3-3-----------------|
D|---2-----2-2-2-2---2-----2-2-2-2---------------------------------|
     .     . . . .   .     . . . .   .     . .     


Then back to pre-chorus and chorus, after which:


Interlude

E|-----------------------------------------------------|
B|-----------------------------------------------------|
G|-----------------------------7----------8---9--------|
D|-5-------------4------3------7----------8---9--------|
A|-5-------------4------3------5----------6---7--------|
D|-5-------------4------3------------------------------|



Solo

E|--------------------------------|
B|--------------------------------|
G|-0-7---7h8---0-7---7h8---7---8~-|
D|-0-0---------0-0----------------|
A|--------------------------------|
D|--------------------------------|



E|------------------------|
B|-11---10-8---10-8-------|
G|------------------7h8~--|
D|------------------------|
A|------------------------|
D|------------------------|


                   P.H.
E|-----------------------------------------|
B|-12~--10-12~--10-12~--10-12-13p12-10-12~-|
G|-----------------------------------------|
D|-----------------------------------------|
A|-----------------------------------------|
D|-----------------------------------------|



E|-12p10----------------------------------------------------------|
B|-------12p10-12p10-------------------------------12h13--/17~~~--|
G|-------------------12p11-12p11-9p7-9p7-----12h14----------------|
D|---------------------------------------9p7----------------------|
A|----------------------------------------------------------------|
D|----------------------------------------------------------------|




Final Chorus:

"my heaven is you hell..."
E|---------------------------------------------------------------|
B|-------------------------------3-3---3---3---3---3-------------|
G|-2-----------------------------2-2---2---2---2---2-------------|
D|-2---rest----------------------0-0-0-0-0-0-0-0-0-0---2h3-2-0-2-|
A|-0---------------------------------0---0---0---0-0-------------|
D|-------------------------------------------------0-------------|
                                     .   .   .   .


E|---------------------------------------------------------------------|
B|---------------------------------3-----------------------------------|
G|---------------------------------2-----2-----2-----------------------|
D|-5---------------7-5---3---------0-----0-----0-------2~------5~------|
A|-5---------------7-5-x-3---------0-0-0-0-0-0-0-0---2-------5---------|
D|-5---------------7-5-x-3-----------0-0---0-0---0-2-------5-----------|
                                     . .   . .   .


E|---------------------------------------------------------------|
B|---------------10\-------------3-3---3---3---3---3-------------|
G|---------------9-\-2-x-4-5-2---2-2---2---2---2---2-------------|
D|-7-7---7---7---7-\-2-x-4-5-2---0-0-0-0-0-0-0-0-0-0---2h3-2-0-2-|
A|-7-7-7-7-7-7-7---------------------0---0---0---0-0-------------|
D|-7-7-7-7-7-7-7-------------------------------------------------|
       .   .   .                     .   .   .   .

                                    "by dawn I will be gone"
E|-----------------------------------------------------------------|
B|-----------------------------------------------------------------|
G|---------------------------------2-------------------------------|
D|-5---------------7-5---3---------0-----0-----5---5-7---5-7---5---|
A|-5---------------7-5-x-3-------3-0-0-0-0-0-0-5---5-7---5-7---5---|
D|-5---------------7-5-x-3-------3-0-0-0-0-0-0-5---5-7---5-7---5---|
                                     . .   . .


E|---------------------------------------------------------------|
B|---------------10\-------------3-3---3---3---3---3-------------|
G|---------------9-\-2-x-4-5-2---2-2---2---2---2---2-------------|
D|-7-7---7---7---7-\-2-x-4-5-2---0-0-0-0-0-0-0-0-0-0---2h3-2-0-2-|
A|-7-7-7-7-7-7-7---------------------0---0---0---0-0-------------|
D|-7-7-7-7-7-7-7-----------------------------------0-------------|
       .   .   .                     .   .   .   .


E|-----------------------------------------------------------------|
B|-----------------------------------------------------------------|
G|---------------------------------2---------------2---------------|
D|-5---------------7-5---3---------0-----0-----5---2---------------|
A|-5---------------7-5-x-3-------3-0-0-0-0-0-0-5---0---------------|
D|-5---------------7-5-x-3-------3-0-0-0-0-0-0-5-------------------|
                                     . .   . . 



Outro:

E|-----------------------------------|
B|-----------------------------------|
G|-----------------------------------|
D|-2-5-2-8-x-7---2-5-2-x-2-x-2-------|
A|-0-3-0-6-x-5---0-3-0-x-0-x-0---5---|
D|-------------------------------5---|



E|-----------------------------------|
B|-----------------------------------|
G|-----------------------------------|
D|-2-5-2-8-x-7---2-5-2-x-2-x-2-x-2---|
A|-0-3-0-6-x-5---0-3-0-x-0-x-0-x-0---| end.
D|-----------------------------------|


legend:
~  vibrato
h  hammer on
p  pull off
.  palm mute
x  dead note
P.H.  pinch harmonic
/ slide up
\ slide down
            
Submit corrections


        My Heaven Is Your Hell lessons Hard to play? Try these video lessons and learn fast My Heaven Is Your Hell lessons
        
↑ Back to top | Tablatures and chords for acoustic guitar and electric guitar, ukulele, drums are parodies/interpretations of the original songs. You may use it for private study, scholarship, research or language learning purposes only