Home » L » Lordi »

Lordi - Hard Rock Hallelujah Bass

Artists:  A B C D E F G H I J K L M N O P Q R S T U V W X Y Z # 

Hard Rock Hallelujah Bass

(ver. 2) Click to play this song!
Lordi
 Rating:
4/5 (4 votes)
                (Clip Version)

Intro:

G|-----------------------------|-----------------------------|
D|-----------------------------|-----------------------------|
A|-0-0----3-3----5-5---------3-|-0-0----3-3-----------6--5-3-|
E|----------------------1--3---|---------------1-1-----------|

---

G|-------------------------------------------------------------|
D|-------------------------------------------------------------|
A|-0-0-0-0-0-0-0-0-0-0-0-0---0-0-0-0-0-0-0-0-0-0-0-0-----------|
E|-------------------------0-------------------------1---3-3-4-| (Only in Album Version)

G|------------------------------------------------------------------|
D|------------------------------------------------------------------|
A|-0-0-0-0-0-0-0-0-0-0-0-0---0-0-0-0-0-0-0-0-0-0-0-0-3-2-0-5----3---|
E|-------------------------0----------------------------------------|


---

G|--------------------------------|---------------------------------|
D|--------------------------------|---------------------------------|
A|-0-0----0-0-----------5-5-------|-------------1-3-0-0-0-0-0-0-0-0-|
E|---------------3-3----------1-3-|-1-1-1-1-1-1---------------------|
        

       First                               Second Time
G|-----------------------------------|---------------------------------|
D|-----------------------------------|-----------------2-2-2-2-2-2-2-2-|
A|-----2---------2-----------3-2-0---|-----2---------------------------|
E|-3-3---3-3-3-3---3-1-1-1-1-------3-|-3-3---3-3-3-3-0-----------------|


Chorus:

G|------------------------------------------------------------------|
D|------------------------------------------------------------------|
A|-0-0-0-0-----------------3-3-3-3-5-5-5-5-1-1-1-1------------------|
E|---------3-3-3-3-1-1-1-1-------------------------1-1-1-1-3-3-3-3-3|

---

G|-------------------------------------------------------|
D|-------------------------------------------------------|
A|-0-0-0-0-0-0-0-0-0-0-0-0---0-0-0-0-0-0-0-0-0-0-0-0-5-3-|
E|-------------------------0-----------------------------|

---

G|--------------------------------|---------------------------------|
D|--------------------------------|---------------------------------|
A|-0-0----0-0-----------5-5-------|-------------1-3-0-0-0-0-0-0-0-0-|
E|---------------3-3----------1-3-|-1-1-1-1-1-1---------------------|
        

       First                               Second Time
G|-----------------------------------|---------------------------------|
D|-----------------------------------|-----------------2-2-2-2-2-2-2-2-|
A|-----2---------2-----------3-2-0---|-----2---------------------------|
E|-3-3---3-3-3-3---3-1-1-1-1-------3-|-3-3---3-3-3-3-0-----------------|

Chorus:
                                                             2x
G|------------------------------------------------------------------|---|
D|------------------------------------------------------------------|---|
A|-0-0-0-0-----------------3-3-3-3-5-5-5-5-1-1-1-1------------------|---|
E|---------3-3-3-3-1-1-1-1-------------------------1-1-1-1-3-3-3-3-3|-0-|

(In album version, do some slides in E)

G|----------------------|---------------------------------------|---------|
B|----------------------|---------------------------------------|---------|
A|-0----3----5----8--10-|-0----3----5----7-----7----/7-/7-/7-/7-|---------|
E|----------------------|---------------------------------------|-0-3-5-0-|

G|-----|--------|-----|--------|-----|------------|---|
B|-----|--------|-----|--------|-----|------------|---|
A|-0-0-|------3-|-0-0-|-6--5-3-|-0-0-|------3-0-0-|---|
E|-----|-1---3--|-----|--------|-----|-1--3-------|-0-|

Chorus:

G|------------------------------------------------------------------|
D|------------------------------------------------------------------|
A|-0-0-0-0-----------------3-3-3-3-5-5-5-5-1-1-1-1------------------|
E|---------3-3-3-3-1-1-1-1-------------------------1-1-1-1-3-3-3-3-3|

Final:

G|-------------------------------|
D|-------------------------------|
A|-0-0---3-3---------6--5-3------|
E|-------------1-1-----------3-5-|
            
Submit corrections

↑ Back to top | Tablatures and chords for acoustic guitar and electric guitar, ukulele, drums are parodies/interpretations of the original songs. You may use it for private study, scholarship, research or language learning purposes only