» » »

Lordi - Discoevil Tabs

Artists:  A B C D E F G H I J K L M N O P Q R S T U V W X Y Z # 

Discoevil Tabs

(ver. 2) Click to play this song!
Lordi
 Rating:
4/5 (4 votes)

 Discoevil lessons Tabs too difficult? Try these video lessons and learn fast
 
                (Intro)
I think this intro is pretty much right. It may not be in standard tuning - I 
think it is - but that's not a big issue to fix. Anyway, here it is...




INTRO
e|------------------------------------|
B|------------------------------------|
G|------------------------------------|
D|------------------------------------|
A|--0-0-6\5--3-5-3----0-0-6\5--3-5-3--|
E|--0-0-6\5--3-5-3----0-0-6\5--3-5-3--|  x2
    . .               . . 

VERSE (played on bass, but done here palm muted)
e|----------------------------------------------------------|
B|----------------------------------------------------------|
G|----------------------------------------------------------|
D|----------------------------------------------------------|
A|----------------------------------------------------------|
E|--0-0----0-0-------------------------0-0----0-0-----------|
    . .    . .                         . .    . .
               Sneaking out.. Saturday night

e|-------------------------------------------------|
B|-------------------------------------------------|
G|-------------------------------------------------|
D|-------------------------------------------------|
A|-------------------------------------------------|
E|-------3-3----3-3-----------5-5----5-5-----------|
         . .    . .           . .    . .
..from right....     ...the window


That's all folks! Hope someone can build on this.
            
Submit corrections


        Discoevil lessons Hard to play? Try these video lessons and learn fast Discoevil lessons
        
↑ Back to top | Tablatures and chords for acoustic guitar and electric guitar, ukulele, drums are parodies/interpretations of the original songs. You may use it for private study, scholarship, research or language learning purposes only