» » »

Lordi - Devil Is A Loser Tabs

Artists:  A B C D E F G H I J K L M N O P Q R S T U V W X Y Z # 

Devil Is A Loser Tabs

(ver. 2) Click to play this song!
Lordi
 Rating:
4.7/5 (15 votes)

 Devil Is A Loser lessons Tabs too difficult? Try these video lessons and learn fast
 
                ANOTHER AMAZIN SONG FROM AN AMAZIN BAND.
ANY FAULTS FOUND FROM THIS EMAIL ME. 

THIS IS NOT ALL MY OWN WORK, I BORROWED THE SOLO FROM ANOTHER TAB SO
THAT THIS FEATURES THE WHOLE SONG UNLIKE SUM THAT MISS PARTS OUT.

Order:
INTRO
VERSE x2
PRE CHORUS 
CHORUS
INTRO (once)
VERSE x2
PRE CHORUS
CHORUS
INTER (I y II)
SOLO
CHORUS x 2


Introduction is as follows:

|---------------------------|------------------|xxx|
|---------------------------|------------------|xxx|
|---------------------------|------------------|xxx|
|--2-----2-/-5-/-7--^^7-----|-2-----2-/-5-/-^7-|xxx|	  play this 3 times
|--2-----2-/-5-/-7--^^7---7-|-2-----2-/-5-/-^7-|xxx|
|--0-----0-/-3-/-5--^^5---5-|-0-----0-/-3-/-^5-|xxx|
 

Verse 1:	
    x  x  x  x  x  x  x  x  x  x  x  x  x  x
|---------------------------------------------------------|
|---------------------------------------------------------|
|---------------------------------------------------------|
|--11-11-11-11-11-11-11-11-11-11-11-11-11-11---11—--11-11-|
|--11-11-11-11-11-11-11-11-11-11-11-11-11-11—--11—--11-11-|
|---9--9--9--9--9--9--9--9--9--9--9--9—-9-—9----9----9--9-|

    x  x  x  x  x  x  x  x  x  x  x  x  x  x
|--11-11-11-11-11-11-11-11-11-11-11-11-11-11---11—---7--9-|
|--11-11-11-11-11-11-11-11-11-11-11-11-11-11—--11—---7--9-|
|---9--9--9--9--9--9--9--9--9--9--9--9—-9-—9----9----5--7-|
 

   x  x  x  x    x    x  x
|--9--9--9--9—---9—---7-—6-|
|--9--9--9--9—---9—---7-—6-|
|--7--7--7--7----7----5-—4-|

   x  x  x  x                x  x           x  x            x  x  x  x
|--6—-6-—6—-6----6----6--7-|—7--7---11-—9-—-9--9-—-9--11---11-11-11-11-|
|--6—-6-—6—-6----6----6--7-|—7--7---11-—9-—-9--9-—-9--11---11-11-11-11-|
|--4--4-—4--4----4----4-—5-|—5--5----9-—7-—-7--7--—7—--9-—--9-—9--9-—9-|

|--9--9-11-|
|--9--9-11-|
|--7--7--9-|


Pre-Chorus:
   x   x  x  x  x  x  x   x   x  x  x  x  x  x
|------------------------------------------—---|
|------------------------------------------—---|
|----------------------------------------------|
|--9---9--9--9--9--9--9---9---9--9--9--9--9—-9-|
|--7---7--7--7--7--7--7---9---9--9--9--9--9—-9-|
|--7---7--7--7--7--7--7---7---7--7--7—-7--7—-7-|
   
      
  
   x   x  x  x  x  x  x   x   x  x  x  x  x  x
|----------------------------------------------|
|----------------------------------------------|
|----------------------------------------------|
|--7---7--7--7--7--7--7---7---7--7--7--7--7—-7-|
|--5---5--5--5--5--5--5---7---7--7--7--7--7—-7-|
|--5---5--5--5--5--5--5---5---5--5--5—-5--5—-5-|
         

   x   x  x  x  x  x  x   x   x  x  x  x  x  x
|-------------------------------------------------------------------|
|-------------------------------------------------------------------|
|-------------------------------------------------------------------|
|--5---5--5--5--5--5--5---5---5--5--5--5--5—-5--|--9--8---8--7---6--|
|--3---3--3--3--3--3--3---5---5--5--5--5--5—-5--|--7--6---6--5---6--|
|--3---3--3--3--3--3--3---3---3--3--3—-3--3—-3--|--x--x---x--x---4--|
           		      


Chorus:

|------------------------------------------|
|------------------------------------------|
|------------------------------------------|
|--9-/-11--11--7—-7-/-9--11-11--9-9--------|
|--9-/-11--11--7—-7-/-9--11-11--9-9--------|
|--7—/--9---9--5—-5-/-7---9—-9--7-7--------|


   x  x  x  x   x  x  x  x   x  x  x  x  x   x  x  x   x
|--5--5--5--5---7--7--7--7---7--7--7--7--7—--9--9--9---9--|
|--5--5--5--5---7--7--7--7---7--7--7--7--7—--9--9--9---9—-|
|--6--6--6--6---9--9--9--9---8--8--8—-8--4—-10—10-10--10--|
|--7--7--7--7---9--9--9--9---9--9--9--9--9—-11—11-11--11--|
|--7--7--7--7---7--7--7--7---9--9--9--9--9—-11—11-11--11--|
|--5--5--5--5---x--x--x--x---7--7--7—-7--7—--9--9--9---9—-|


|------------------------------------------|
|------------------------------------------|
|------------------------------------------|
|--9-/-11--11--7—-7-/-9--11-11--9-9--------|
|--9-/-11--11--7—-7-/-9--11-11--9-9--------|
|--7—/--9---9--5—-5-/-7---9—-9--7-7--------|


   x  x  x  x   x  x  x  x   x  x
|----------------------------------|
|----------------------------------|
|----------------------------------|
|--7--7--7--7---9--9--9--9---9--9--|
|--7--7--7--7---7--7--7--7---9--9--|
|--5--5--5--5---x--x--x--x---7--7--|


Inter:

|-----------|-----------|-----------|-----------|-----------|
|-----------|-----------|-----------|-----------|-----------|
|-----------|-----------|-----------|-----------|-----------|	
|--------2--|--------2--|--------2--|--------2--|--------2--|
|--^7--7-2--|--^7--7-2--|--^7--7-2--|--^7--7-2--|--^7--7-2--|
|--^5--5-0--|--^5--5-0--|--^5--5-0--|--^5--5-0--|--^5--5-0--|
    b   	    b	   	    b   	    b    	     

|---------------------------|------------------|xxx|
|---------------------------|------------------|xxx|
|---------------------------|------------------|xxx|
|--2-----2-/-5-/-7--^^7-----|-2-----2-/-5-/-^7-|xxx|		
|--2-----2-/-5-/-7--^^7---5-|-2-----2-/-5-/-^7-|xxx|
|--0-----0-/-3-/-5--^^5---5-|-0-----0-/-3-/-^5-|xxx|


|---------------------------|---------------------|			
|---------------------------|---------------------|			
|---------------------------|-10-10--6---6--10----|		
|--2-----2-/-5-/-7--^^7-----|-11-11--7---7---9----|	 
|--2-----2-/-5-/-7--^^7---7-|-11-11--7---7---9----|
|--0-----0-/-3-/-5--^^5---5-|--9--9--5---5---7----|	


Solo:

|--------------------------------------|
|--------------------------------------|
|--------------------------------------|		play this twice
|-----4--------4-----------3-----4--3--|
|--6-----6-----------4--4-----4--------|
|-----------7-----7--------------------|

|--------------------------------------|---------------------------------4-|
|--------------------------------------|---------------------------------4-|
|--------------------------------------|-------------------9--8---8--7---5-|
|-----5--------5-----------4-----5--4--|----5--------5-----9--8---8--7---6-|
|--7-----7-----------5--5-----5--------|-7-----7-----------7--6---6--5---6-|
|-----------8-----8--------------------|----------8-----8----------------4-|
            
Submit corrections


        Devil Is A Loser lessons Hard to play? Try these video lessons and learn fast Devil Is A Loser lessons
        
↑ Back to top | Tablatures and chords for acoustic guitar and electric guitar, ukulele, drums are parodies/interpretations of the original songs. You may use it for private study, scholarship, research or language learning purposes only