» » »

Lordi - Children Of The Night Tabs

Artists:  A B C D E F G H I J K L M N O P Q R S T U V W X Y Z # 

Children Of The Night Tabs

(ver. 2) Click to play this song!
Lordi
 Rating:
4.2/5 (5 votes)

 Children Of The Night lessons Tabs too difficult? Try these video lessons and learn fast
 
                e]---------------------------------------------|
b]---10---12-13-15-------13p12--------12/13----|
g]-----------------------------17--------------|
d]---------------------------------------------|
a]---------------------------------------------|
E]---------------------------------------------|

e]---------------------------------------------|
b]-15b-15b-15bhold--15b-15b-15b-15b-15b-15b----|
g]---------------------------------------------|
d]---------------------------------------------|
a]---------------------------------------------|
E]---------------------------------------------|

e]---------------------------------------------|
b]-15p13---12h13h15--13p12h13p12--10-9-10------|
g]---------------------------------------------|
d]---------------------------------------------|
a]---------------------------------------------|
E]---------------------------------------------|

e]---------------------------------------------|
b]-10-12-13----13p12-----9---/15--15b-15b------|
g]-------------------14------------------------|
d]---------------------------------------------|
a]---------------------------------------------|
E]---------------------------------------------|

This sounds 100% correct to me. Please rate and go easy. I am only 15 after all. :)  
ON!!!
            
Submit corrections


        Children Of The Night lessons Hard to play? Try these video lessons and learn fast Children Of The Night lessons
        
↑ Back to top | Tablatures and chords for acoustic guitar and electric guitar, ukulele, drums are parodies/interpretations of the original songs. You may use it for private study, scholarship, research or language learning purposes only