Home » L » Long Beach Dub All-Stars »

Long Beach Dub All-Stars - Righteous Dub Bass

Artists:  A B C D E F G H I J K L M N O P Q R S T U V W X Y Z # 

Righteous Dub Bass

(ver. 2) Click to play this song!
Long Beach Dub All-Stars
-------------------------------------------------------------------------------
			     SONG NAME - Band Name
-------------------------------------------------------------------------------


Tuning: Standard

G|---------------------------------------------------------------------------|
D|---------------------------------------------------------------------------|
A|----------2~---------------------------------------------------------------|
E|----2----------------------------------------------------------------------|

G|---------------------------------------------------------------------------|
D|---------------------------------------------------------------------------|
A|-----------2------------h4----h4-------------------------------------------|
E|----2----------------------------------------------------------------------|

G|---------------------------------------------------------------------------|
D|---------------------------5----------7----------5-------------------------|
A|-------5---------7---------------------------------------7-------5---------|
E|---------------------------------------------------------------------3--3--|

G|---------------------------------------------------------------------------|
D|---------------------------------------------------------------------------|
A|-------------2--------h4--------h4-----------------------------------------|
E|----2----------------------------------------------------------------------|


| /  slide up
| \  slide down
| h  hammer-on
| p  pull-off
| ~  vibrato
| +  harmonic
| x  Mute note
===============================================================================
            
Submit corrections

↑ Back to top | Tablatures and chords for acoustic guitar and electric guitar, ukulele, drums are parodies/interpretations of the original songs. You may use it for private study, scholarship, research or language learning purposes only