Home » L » Long Beach Dub All-Stars »

Long Beach Dub All-Stars - Righteous Dub Tabs

Artists:  A B C D E F G H I J K L M N O P Q R S T U V W X Y Z # 

Righteous Dub Tabs

(ver. 1) Click to play this song!
Long Beach Dub All-Stars
Tuning: Standard

Play with the "reggae skank" syle and only chopping the first three strings.

Intro: Play with delay.

e|--4--4--4---4--4--4--|
B|--5--5--5---4--4--4--|
G|--6--6--6---4--4--4--|
D|--6--6--6---6--6--6--|
A|--4--4--4---6--6--6--|
E|------------4--4--4--|

Rest of the song: You can figure out the different strumming patterns throughout the song.

e|--4--x--4--x--4--x--4--x--4--x--4--x--4--x--4--x--|
B|--5--x--5--x--5--x--5--x--4--x--4--x--4--x--4--x--|
G|--6--x--6--x--6--x--6--x--4--x--4--x--4--x--4--x--|
D|--6-----6-----6-----6-----6-----6-----6-----6-----|
A|--4-----4-----4-----4-----6-----6-----6-----6-----|
E|--------------------------4-----4-----4-----4-----|

Around 1:50 in the song just rest your finger over 22 and tremolo pick with delay
to get some of those trippy and spacey echo delays.

e|--(22)(22)(22)(22)/--|
B|---------------------|
G|---------------------|
D|---------------------|
A|---------------------|
E|---------------------|
            
Submit corrections

↑ Back to top | Tablatures and chords for acoustic guitar and electric guitar, ukulele, drums are parodies/interpretations of the original songs. You may use it for private study, scholarship, research or language learning purposes only