Home » L » Lipps Inc »

Lipps Inc - Funkytown Funky Tabs

Artists:  A B C D E F G H I J K L M N O P Q R S T U V W X Y Z # 

Funkytown Funky Tabs

(ver. 2) Click to play this song!
Lipps Inc
 Intro & Interlude
  Q=128
  $
  N.C.
 4/4
  Gtr I (Synthesizer arr. for Gtr.)
  W          W           E  E  E  E E  E E  E    E  E  E  E H
|----------|----------|-----------------------|----13-12---------|
|----------|----------|-13-13-11-13-----------|-13-------13------|
|----------|----------|---------------12---12-|------------------|
|----------|----------|-----------------------|------------------|
|----------|----------|-----------------------|------------------|
|----------|----------|-----------------------|------------------|


                                             1st & 2nd Verses
                                              N.C.
   E  E  E  E E  E E  E    E  E  E  E H       W          W
|-----------------------|----13-12---------||----------|------|
|-13-13-11-13-----------|-13-------13------||----------|------|
|---------------12---12-|------------------||----------|------|
|-----------------------|------------------||----------|------|
|-----------------------|------------------||----------|------|
|-----------------------|------------------||----------|------|


   E  E  E  E E  E E  E    E  E  E  E H      W          W
|-----------------------|----13-12---------|----------|------|
|-13-13-11-13-----------|-13-------13------|----------|------|
|---------------12---12-|------------------|----------|------|
|-----------------------|------------------|----------|------|
|-----------------------|------------------|----------|------|
|-----------------------|------------------|----------|------|


   E  E  E  E E  E E  E    E  E  E  E H      W          W
|-----------------------|----13-12---------|----------|------|
|-13-13-11-13-----------|-13-------13------|----------|------|
|---------------12---12-|------------------|----------|------|
|-----------------------|------------------|----------|------|
|-----------------------|------------------|----------|------|
|-----------------------|------------------|----------|------|


  E E E E E E E E   E E E E H      W          W
|-----------------|---8-7--------|----------|------|
|-8-8-6-8---------|-8-----8------|----------|------|
|-----------7---7-|--------------|----------|------|
|-----------------|--------------|----------|------|
|-----------------|--------------|----------|------|
|-----------------|--------------|----------|------|


   E  E  E  E E  E E  E    E  E  E  E Q  E  E
|-----------------------|----13-12------------|
|-13-13-11-13-----------|-13-------13---------|
|---------------12---12-|------------------12-|
|-----------------------|---------------------|
|-----------------------|---------------------|
|-----------------------|---------------------|


   E  E  E  E E  E E  E    E  E  E  E Q  E  E
|-----------------------|----13-12------------|
|-13-13-11-13-----------|-13-------13---------|
|---------------12---12-|------------------12-|
|-----------------------|---------------------|
|-----------------------|---------------------|
|-----------------------|---------------------|


   E  E  E  E E  E E  E    E  E  E  E Q  E  E
|-----------------------|----13-12------------|
|-13-13-11-13-----------|-13-------13---------|
|---------------12---12-|------------------12-|
|-----------------------|---------------------|
|-----------------------|---------------------|
|-----------------------|---------------------|


   E  E  E  E E  E E  E    E  E  E  E H
|-----------------------|----13-12---------|
|-13-13-11-13-----------|-13-------13------|
|---------------12---12-|------------------|
|-----------------------|------------------|
|-----------------------|------------------|
|-----------------------|------------------|


          To Coda
  Wx5          W
|------------|-------||
|------------|-------||
|------------|-------||
|------------|-------||
|------------|-------||
|------------|-------||


 Chorus
  Cm7
  Gtr II (El. Gtr.)
  E. S E E E E E E   E. S E E E E E E   E. S E E E E E E   E. S E E E E E E
|------------------|------------------|------------------|-------------------|
|-8--8-8-----------|-8--8-8-----------|-8--8-8-----------|-8--8-8------------|
|-8--8-8---x-x-x-x-|-8--8-8---x-x-x-x-|-8--8-8---x-x-x-x-|-8--8-8---x-x-x-x--|
|-8--8-8---x-x-x-x-|-8--8-8---x-x-x-x-|-8--8-8---x-x-x-x-|-8--8-8---x-x-x-x--|
|------------------|------------------|------------------|-------------------|
|------------------|------------------|------------------|-------------------|


  E. S E E E E E E   E. S E E E E E E   E. S E E E E E E   E. S E E E E E E
|------------------|------------------|------------------|-------------------||
|-8--8-8-----------|-8--8-8-----------|-8--8-8-----------|-8--8-8------------||
|-8--8-8---x-x-x-x-|-8--8-8---x-x-x-x-|-8--8-8---x-x-x-x-|-8--8-8---x-x-x-x--||
|-8--8-8---x-x-x-x-|-8--8-8---x-x-x-x-|-8--8-8---x-x-x-x-|-8--8-8---x-x-x-x--||
|------------------|------------------|------------------|-------------------||
|------------------|------------------|------------------|-------------------||


 Interlude
  Cm7
  E. S E  E  E  E  E  E   E. S E  E  E  E  E E
|-----------------------|----------------------|
|-8--8-8----------------|-8--8-8---------------|
|-8--8-8-----x--x--x--x-|-8--8-8-----x--x--x-x-|
|-8--8-8-----x--x--x--x-|-8--8-8-----x--x--x-x-|
|-----------------------|----------------------|
|-----------------------|----------------------|
|
| Gtr III (Violin arr. for Gtr.)
| Q    E  E  E  E  E  E   Q    E  E  E  E  Q
|-----------------------|-----------------11---|
|-----------11----11----|--------11-13-11------|
|--------12----12----12-|----------------------|
|-----------------------|----------------------|
|-----------------------|----------------------|
|-----------------------|----------------------|


  E. S E  E  E  E  E  E   E. S E  E  E  E  E E
|-----------------------|-----------------------|
|-8--8-8----------------|-8--8-8----------------|
|-8--8-8-----x--x--x--x-|-8--8-8-----x--x--x-x--|
|-8--8-8-----x--x--x--x-|-8--8-8-----x--x--x-x--|
|-----------------------|-----------------------|
|-----------------------|-----------------------|
|
| Q    E  E  E  E  E  E   Q    E  E  E  E  Q
|-----------------------|-----------------------|
|-----------11----11----|--------11-13-13-------|
|--------12----12----12-|-----------------------|
|-----------------------|-----------------13----|
|-----------------------|-----------------------|
|-----------------------|-----------------------|


  E. S E  E  E  E  E  E   E. S E  E  E  E  E E
|-----------------------|----------------------|
|-8--8-8----------------|-8--8-8---------------|
|-8--8-8-----x--x--x--x-|-8--8-8-----x--x--x-x-|
|-8--8-8-----x--x--x--x-|-8--8-8-----x--x--x-x-|
|-----------------------|----------------------|
|-----------------------|----------------------|
|
| Q    E  E  E  E  E  E   Q    E  E  E  E  Q
|-----------------------|-----------------11---|
|-----------11----11----|--------11-13-11------|
|--------12----12----12-|----------------------|
|-----------------------|----------------------|
|-----------------------|----------------------|
|-----------------------|----------------------|


  E. S E  E  E  E  E  E   E. S E  E  E  E  E E
|-----------------------|-----------------------|
|-8--8-8----------------|-8--8-8----------------|
|-8--8-8-----x--x--x--x-|-8--8-8-----x--x--x-x--|
|-8--8-8-----x--x--x--x-|-8--8-8-----x--x--x-x--|
|-----------------------|-----------------------|
|-----------------------|-----------------------|
|
| Q    E  E  E  E  E  E   Q    E  E  E  E  Q
|-----------------------|-----------------------|
|-----------11----11----|--------11-13-13-------|
|--------12----12----12-|-----------------------|
|-----------------------|-----------------13----|
|-----------------------|-----------------------|
|-----------------------|-----------------------|


    F
     S  S S  S S  S S  S  Q    Q
||----------------------------------|
||o-10-10---10---10---10-10\--------|
||--10-10---10---10---10-10\--------|
||--10-10---10---10---10-10\--------|
||o--8--8----8----8----8--8\--------|
||----------------------------------|
|
|   Gtr IV (Sax arr. for Gtr.)
|    H                    Q    E  E
||----------------------------------|
||o---------------------------------|
||----------------------------------|
||----------------------------15-13-|
||o---------------------------------|
||----------------------------------|


   W                                 S  S S  S S  S S  S  Q    Q
|---------------------------------|----------------------------------|
|---------------------------------|-10-10---10---10---10-10\---------|
|---------------------------------|-10-10---10---10---10-10\---------|
|---------------------------------|-10-10---10---10---10-10\---------|
|---------------------------------|--8--8----8----8----8--8\---------|
|---------------------------------|----------------------------------|
|
|  E  E  E  E  S  S  S  S  +E   E    H                    Q    E  E
|---------------------------------|----------------------------------|
|---------------------------------|----------------------------------|
|-------------15h16p15-13-(13)-15-|----------------------------------|
|-15-13-15-13---------------------|---------------------------15-13--|
|---------------------------------|----------------------------------|
|---------------------------------|----------------------------------|


  1.
   W
|--------------------------------||
|-------------------------------o||
|--------------------------------||
|--------------------------------||
|-------------------------------o||
|--------------------------------||
|
|  E     +E   E  e  E.  S  +Q
|--------------------------------||
|-------------------------------o||
|-12b13r(12)---------------------||
|------------15-13-13--15-(15)---||
|-------------------------------o||
|--------------------------------||


                                  Chorus
 2.
                                   Cm7
   W                                 E. S E E E E E E
|-------------------------------||--------------------|
|-------------------------------||---8--8-8-----------|
|-------------------------------||---8--8-8---x-x-x-x-|
|-------------------------------||---8--8-8---x-x-x-x-|
|-------------------------------||--------------------|
|-------------------------------||--------------------|
|
|  E     +E   E  e  E.  S  +Q       +H        H
|-------------------------------||--------------------|
|-------------------------------||--------------------|
|-12b13r(12)--------------------||--------------------|
|------------15-13-13--15-(15)--||-(15)---------------|
|-------------------------------||--------------------|
|-------------------------------||--------------------|


  E. S E E E E E E   E. S E E E E E E   E. S E E E E E E   E. S E E E E E E
|------------------|------------------|------------------|-------------------|
|-8--8-8-----------|-8--8-8-----------|-8--8-8-----------|-8--8-8------------|
|-8--8-8---x-x-x-x-|-8--8-8---x-x-x-x-|-8--8-8---x-x-x-x-|-8--8-8---x-x-x-x--|
|-8--8-8---x-x-x-x-|-8--8-8---x-x-x-x-|-8--8-8---x-x-x-x-|-8--8-8---x-x-x-x--|
|------------------|------------------|------------------|-------------------|
|------------------|------------------|------------------|-------------------|


                                             D.S. al Coda
  E. S E E E E E E   E. S E E E E E E   E. S E E E E E E
|------------------|------------------|-------------------||
|-8--8-8-----------|-8--8-8-----------|-8--8-8------------||
|-8--8-8---x-x-x-x-|-8--8-8---x-x-x-x-|-8--8-8---x-x-x-x--||
|-8--8-8---x-x-x-x-|-8--8-8---x-x-x-x-|-8--8-8---x-x-x-x--||
|------------------|------------------|-------------------||
|------------------|------------------|-------------------||


   Chorus
    &
    Cm7
    Gtr II
    E. S E E E E E E   E. S E E E E E E
||-------------------|------------------|
||o-8--8-8-----------|-8--8-8-----------|
||--8--8-8---x-x-x-x-|-8--8-8---x-x-x-x-|
||--8--8-8---x-x-x-x-|-8--8-8---x-x-x-x-|
||o------------------|------------------|
||-------------------|------------------|


  E. S E E E E E E   E. S E E E E E E
|------------------|-------------------||
|-8--8-8-----------|-8--8-8-----------o||
|-8--8-8---x-x-x-x-|-8--8-8---x-x-x-x--||
|-8--8-8---x-x-x-x-|-8--8-8---x-x-x-x--||
|------------------|------------------o||
|------------------|-------------------||


   Interlude
    Cm7
    E. S E  E  E  E  E  E   E. S E  E  E  E  E E
||------------------------|----------------------|
||o-8--8-8----------------|-8--8-8---------------|
||--8--8-8-----x--x--x--x-|-8--8-8-----x--x--x-x-|
||--8--8-8-----x--x--x--x-|-8--8-8-----x--x--x-x-|
||o-----------------------|----------------------|
||------------------------|----------------------|
|
|   Gtr III
|   Q    E  E  E  E  E  E   Q    E  E  E  E  Q
||------------------------|-----------------11---|
||o-----------11----11----|--------11-13-11------|
||---------12----12----12-|----------------------|
||------------------------|----------------------|
||o-----------------------|----------------------|
||------------------------|----------------------|


  E. S E  E  E  E  E  E   E. S E  E  E  E  E E
|-----------------------|-----------------------||
|-8--8-8----------------|-8--8-8---------------o||
|-8--8-8-----x--x--x--x-|-8--8-8-----x--x--x-x--||
|-8--8-8-----x--x--x--x-|-8--8-8-----x--x--x-x--||
|-----------------------|----------------------o||
|-----------------------|-----------------------||
|
| Q    E  E  E  E  E  E   Q    E  E  E  E  Q
|-----------------------|-----------------------||
|-----------11----11----|--------11-13-13------o||
|--------12----12----12-|-----------------------||
|-----------------------|-----------------13----||
|-----------------------|----------------------o||
|-----------------------|-----------------------||


   Outro
    Cm7
    E. S E E E E E E   E. S E E E E E E
||-------------------|------------------|
||o-8--8-8-----------|-8--8-8-----------|
||--8--8-8---x-x-x-x-|-8--8-8---x-x-x-x-|
||--8--8-8---x-x-x-x-|-8--8-8---x-x-x-x-|
||o------------------|------------------|
||-------------------|------------------|


  E. S E E E E E E   E. S E E E E E E
|------------------|-------------------||
|-8--8-8-----------|-8--8-8-----------o||
|-8--8-8---x-x-x-x-|-8--8-8---x-x-x-x--||
|-8--8-8---x-x-x-x-|-8--8-8---x-x-x-x--||
|------------------|------------------o||
|------------------|-------------------||            
Submit corrections

↑ Back to top | Tablatures and chords for acoustic guitar and electric guitar, ukulele, drums are parodies/interpretations of the original songs. You may use it for private study, scholarship, research or language learning purposes only