Home » L » Lipps Inc »

Lipps Inc - Funkytown Funky Bass

Artists:  A B C D E F G H I J K L M N O P Q R S T U V W X Y Z # 

Funkytown Funky Bass

(Version #1)
Lipps Inc
 Intro & Interlude
  Q=128
  $
 4/4
  Gtr I (Synth. Bass arr. for Electric Bass)
  E E E E E E E E   E E E E E E E E   E E E E E E E E   E E E E E E E E
|---5---5---5---5-|---5---5---5---5-|---5---5---5---5-|---5---5---5---5--|
|-----------------|-----------------|-----------------|------------------|
|-3---3---3---3---|-3---3---3---3---|-3---3---3---3---|-3---3---3---3----|
|-----------------|-----------------|-----------------|------------------|


                                      1st & 2nd Verses
  E E E E E E E E   E E E E E E E E    E E E E E E E E   E E E E E E E E
|---5---5---5---5-|---5---5---5---5-||---5---5---5---5-|---5---5---5---5-|
|-----------------|-----------------||-----------------|-----------------|
|-3---3---3---3---|-3---3---3---3---||-3---3---3---3---|-3---3---3---3---|
|-----------------|-----------------||-----------------|-----------------|


  E E E E E E E E   E E E E E E E E   E E E E E E E E   E E E E E E E E
|---5---5---5---5-|---5---5---5---5-|---5---5---5---5-|---5---5---5---5-|
|-----------------|-----------------|-----------------|-----------------|
|-3---3---3---3---|-3---3---3---3---|-3---3---3---3---|-3---3---3---3---|
|-----------------|-----------------|-----------------|-----------------|


  E E E E E E E E   E E E E E E E E
|---5---5---5---5-|---5---5---5---5-|
|-----------------|-----------------|
|-3---3---3---3---|-3---3---3---3---|
|-----------------|-----------------|


   E  E  E  E  E  E  E  E    E  E  E  E  E  E  E  E
|----12----12----12----12-|----12----12----12----12-|
|-------------------------|-------------------------|
|-10----10----10----10----|-10----10----10----10----|
|-------------------------|-------------------------|


   E  E  E  E  E  E  E  E    E  E  E  E  E  E  E  E
|----12----12----12----12-|----12----12----12----12-|
|-------------------------|-------------------------|
|-10----10----10----10----|-10----10----10----10----|
|-------------------------|-------------------------|


   E  E  E  E E  E E  E   E E E E E E E E
|----12----12---10---10-|---9---9---7---7-|
|-----------------------|-----------------|
|-10----10----8----8----|-7---7---5---5---|
|-----------------------|-----------------|


  E E E E E E E E   E E E E E E E E   E E E E E E E E   E E E E E E E E
|---5---5---5---5-|---5---5---5---5-|---5---5---5---5-|---5---5---5---5-|
|-----------------|-----------------|-----------------|-----------------|
|-3---3---3---3---|-3---3---3---3---|-3---3---3---3---|-3---3---3---3---|
|-----------------|-----------------|-----------------|-----------------|


  E E E E E E E E   E E E E E E E E   E E E E E E E E   E E E E E E E E
|---5---5---5---5-|---5---5---5---5-|---5---5---5---5-|---5---5---5---5-|
|-----------------|-----------------|-----------------|-----------------|
|-3---3---3---3---|-3---3---3---3---|-3---3---3---3---|-3---3---3---3---|
|-----------------|-----------------|-----------------|-----------------|


   E  E  E  E E  E E  E   E E E E E E E E   E  E Q  H      W
|----12----12---10---10-|---9---9---7---7-|--------------|------|
|-----------------------|-----------------|---10---------|------|
|-10----10----8----8----|-7---7---5---5---|--------------|------|
|-----------------------|-----------------|-8------------|------|


                                       Chorus
                             To Coda
  E E E E E E E E   E E E E E E E E     E E E E E E E E   E E E E E E E E
|-----------------|------------------||-----------------|-----------------|
|-----------------|------------------||-----------------|-----------------|
|-3-3-----1-1-2-2-|-3-3-----1-1-2----||-3-3-----1-1-2-2-|-3-3-----1-1-2---|
|-----3-3---------|-----3-3----------||-----3-3---------|-----3-3---------|


  E E E E E E E E   E E E E E E E E   E E E E E E E E   E E E E E E E E
|-----------------|-----------------|-----------------|------------------|
|-----------------|-----------------|-----------------|------------------|
|-3-3-----1-1-2-2-|-3-3-----1-1-2---|-3-3-----1-1-2-2-|-3-3-----1-1-2----|
|-----3-3---------|-----3-3---------|-----3-3---------|-----3-3----------|


                                      Interlude
  E E E E E E E E   E E E E E E E E    E E E E E E E E   E E E E E E E E
|-----------------|-----------------||-----------------|------------------|
|-----------------|-----------------||-----------------|------------------|
|-3-3-----1-1-2-2-|-3-3-----1-1-2---||-3-3-----1-1-2-2-|-3-3-----1-1-2----|
|-----3-3---------|-----3-3---------||-----3-3---------|-----3-3----------|


  E E E E E E E E   E E E E E E E E   E E E E E E E E   E E E E E E E E
|-----------------|-----------------|-----------------|------------------|
|-----------------|-----------------|-----------------|------------------|
|-3-3-----1-1-2-2-|-3-3-----1-1-2---|-3-3-----1-1-2-2-|-3-3-----1-1-2----|
|-----3-3---------|-----3-3---------|-----3-3---------|-----3-3----------|


  E E E E E E E E   E E E E E E E E     S S S S S S S S Q  Q    W
|-----------------|-----------------||------------------------|------|
|-----------------|-----------------||o-3-3---3---3---3-3-----|------|
|-3-3-----1-1-2-2-|-3-3-----1-1-2---||o-----------------------|------|
|-----3-3---------|-----3-3---------||--1-1---1---1---1-1-----|------|


                         1.           2.
  S S S S S S S S Q  Q    W            W
|-----------------------|-----------||------||
|-3-3---3---3---3-3-----|----------o||------||
|-----------------------|----------o||------||
|-1-1---1---1---1-1-----|-----------||------||


 Chorus
  E E E E E E E E   E E E E E E E E   E E E E E E E E   E E E E E E E E
|-----------------|-----------------|-----------------|------------------|
|-----------------|-----------------|-----------------|------------------|
|-3-3-----1-1-2-2-|-3-3-----1-1-2---|-3-3-----1-1-2-2-|-3-3-----1-1-2----|
|-----3-3---------|-----3-3---------|-----3-3---------|-----3-3----------|


                                                            D.S. al Coda
  E E E E E E E E   E E E E E E E E   E E E E E E E E   E E E E E E E E
|-----------------|-----------------|-----------------|------------------||
|-----------------|-----------------|-----------------|------------------||
|-3-3-----1-1-2-2-|-3-3-----1-1-2---|-3-3-----1-1-2-2-|-3-3-----1-1-2----||
|-----3-3---------|-----3-3---------|-----3-3---------|-----3-3----------||


   Chorus
    &
    E E E E E E E E   E E E E E E E E   E E E E E E E E   E E E E E E E E
||------------------|-----------------|-----------------|------------------||
||o-----------------|-----------------|-----------------|-----------------o||
||o-3-3-----1-1-2-2-|-3-3-----1-1-2---|-3-3-----1-1-2-2-|-3-3-----1-1-2---o||
||------3-3---------|-----3-3---------|-----3-3---------|-----3-3----------||


   Interlude
    E E E E E E E E   E E E E E E E E   E E E E E E E E   E E E E E E E E
||------------------|-----------------|-----------------|------------------||
||o-----------------|-----------------|-----------------|-----------------o||
||o-3-3-----1-1-2-2-|-3-3-----1-1-2---|-3-3-----1-1-2-2-|-3-3-----1-1-2---o||
||------3-3---------|-----3-3---------|-----3-3---------|-----3-3----------||


   Outro
    E E E E E E E E   E E E E E E E E   E E E E E E E E   E E E E E E E E
||------------------|-----------------|-----------------|------------------||
||o-----------------|-----------------|-----------------|-----------------o||
||o-3-3-----1-1-2-2-|-3-3-----1-1-2---|-3-3-----1-1-2-2-|-3-3-----1-1-2---o||
||------3-3---------|-----3-3---------|-----3-3---------|-----3-3----------||
            
Submit corrections

↑ Back to top | Tablatures and chords for acoustic guitar and electric guitar, ukulele, drums are parodies/interpretations of the original songs. You may use it for private study, scholarship, research or language learning purposes only