Home » L » Less Than Jake »

Less Than Jake - Escape From The A-Bomb House Bass

Artists:  A B C D E F G H I J K L M N O P Q R S T U V W X Y Z # 

Escape From The A-Bomb House Bass

(ver. 1) Click to play this song!
Less Than Jake
 Rating:
4/5 (4 votes)
                LESS THAN JAKE
ESCAPE FROM THE A-BOMB HOUSE

# = strum a bunch of times

VERSE
G-------------------|
D--strum------------|
A----4-------strum--|
E--------------5----|


G----#--#--#--#-----|
D-------------------|
A----7-----4--------|
E-------4-----5-----|


CHORUS
G-#----#-----#--#---|
D-------------------|
A-4----------7------|
E----4-5--7-----7---|

BRIDGE THINGY
G-------------------------------------------------|
D-------------------------------------------------|
A---------777------777--777--777---7---7---7---7--|
E--777777----777777---7----7-----7---7---7---7----|

ENDING
G-------------------------------------|
D-------------------------------------|
A--7777--5555---7777--5555-----7~~~~--|
E-------------------------------------|
            
Submit corrections

↑ Back to top | Tablatures and chords for acoustic guitar and electric guitar, ukulele, drums are parodies/interpretations of the original songs. You may use it for private study, scholarship, research or language learning purposes only