» » »

Less Than Jake - Grease Lightening Bass

Artists:  A B C D E F G H I J K L M N O P Q R S T U V W X Y Z # 

Grease Lightening Bass

(ver. 1) Click to play this song!
Less Than Jake
 Rating:
4/5 (4 votes)

 Grease Lightening lessons Tabs too difficult? Try these video lessons and learn fast
 
                INTRO
G-----------------------
D-----------------------
A---------------3333--
E--3--3--3 ------------

When Roger goes into the verse he simply uses the blues scales
So it should go something like this, (sometimes he plays the 
notes twice.

VERSE  PART1
G------0-2-3-2-0--------0-2-3-2-0---
D----2-------------2---2-------------2-   
A--3-----------------3-----------------3      
E-----------------------------------------

PART 2
G---2-5-7-8-7-5-2----0-2-3-2-0-
D-3-------------------2------------2
A--------------------3---------------
E-------------------------------------

PART 3                                              END 
G-------------------2-5-7-8-7-5-2----0-2-3-2-0- |----------
D----0-2-3-2-2- -3------------------2-----------2 |----------
A- -2------------2------------------3--------------- |---3~----
E-3-------------------------------------------------- |----------

My first tab, thanks,
                                 Jazzman2k
            
Submit corrections


        Grease Lightening lessons Hard to play? Try these video lessons and learn fast Grease Lightening lessons
        
↑ Back to top | Tablatures and chords for acoustic guitar and electric guitar, ukulele, drums are parodies/interpretations of the original songs. You may use it for private study, scholarship, research or language learning purposes only