» » »

Less Than Jake - Big Tabs

Artists:  A B C D E F G H I J K L M N O P Q R S T U V W X Y Z # 

Big Tabs

(ver. 2) Click to play this song!
Less Than Jake
 Rating:
4/5 (4 votes)

 Big lessons Tabs too difficult? Try these video lessons and learn fast
 
                


Less Than Jake - Big (the old pezcore version)

Right, a few things you must know before you attempt to learn this:

For example, in 'Intro Riff Part 1' I havent put the full amount of notes
in because that would mean i would have to count them all, etc. 
So its pretty easy to work that those parts out yourself.
In the verse, Chris from LTJ plays a few open strings, different
ones at different points. The thing is you can play them randomly
like he does in the recording so i didnt bother doing it exactly.

In the Chorus, as long as you play A, B, and D it won't matter what
type chords you play (power chords, bar chords etc), although im pretty sure
that he plays bar chords, do whatever you want.

Again in the 'Riff after Chorus' i havent put the full amount notes, so dont
play it exactly to the tab, play along to the recording, using the notes as a 
guide.
The main thing is that in the Interlude I havent labelled the palm muting,
nor have i typed out the single notes, cos its different writing it out to
playing it, you have to literally count every note, (you know what i mean)

So I just put briefly what it is that you play,
not the rhythm of the palm muting or the single notes etc.
(there are only 3 chords in the song, A,B,and D)

Intro Riff Part 1
e------------------------------------------------------------------
b------------------------------------------------------------------
g--6---6---6---6--6-6-6-6-6-6-6-6-6---------------------7-6-7-8----
d--7-7-7-7-7-7-7--7-7-7-7-7-7-7-7-7-----9-9-9-9-9-9-----0-0-0-0----
e------------------------------------------------------------------
E------------------------------------------------------------------



Intro Riff Part 2
e------------------------------------------------------
b------------------------------------------------------
g-----6-7p6--6-----6--7p6------------7-6-7-8-----------
d---7----------7-7---------9-9-9-9--(0)---------------- 
a------------------------------------------------------
E------------------------------------------------------

VERSE
e------------0---------------------------------------
b--------------0-------------------------------------
g---6~~~~~~-------7-7---6~~~~~~~---------------------
d---7~~~~~~-------7-7---7~~~~~~~---------------------
a---0~~~~~~-------5-5---0~~~~~~~---------------------
E----------------------------------------------------


Chorus (A,B,D)
e---5----7----10--------------------------------------------
b---5----7----10--------------------------------------------
g---6----8----11-------------------------------------7------
d---7----9----12------OR-----------7----OR---7---9---7-(etc)
a---7----9----12-----------7---9---5---------7---9---5------
E---5----7----10-----------5---7-------------5---7----------



Riff After Chorus
e----------------------------------------------------
b----------------------------------------------------
g----------------------------------------------------
d----------------------------------------------------
a---0--4-5p4-4--0-0--4-5p4-0--22222---555555---------
E----------------------------------------------------



2nd Verse (A,B,D) same as chorus
e---5----7----10-------------------------------------------
b---5----7----10-------------------------------------------
g---6----8----11-------------------------------------------
d---7----9----12------OR------------7----(etc)-------------
a---7----9----12------------7---9---5----------------------
E---5----7----10------------5---7--------------------------


Interlude 
(i havent written it exactly, eg:muting, and the single notes he picks out,
as that would just make it too confusing, just work it out from the track)

e------------------------------------------------
b------------------------------------------------
g------------------------------7-7-7-7-7-7-------
d------------------------------0-0-0-0-0-0-------
a--7777777777777777--99999999--------------------
E--5555555555555555--77777777--------------------


e------------------------------------------------------------
b------------------------------------------------------------
g------------------------------7-7-9-7-----------------------
d------------------------------0-0-0-0-----------------------
a--7777777777777777--99999999--------------------------------
E--5555555555555555--77777777--------------------------------


Ending
e-----------------------------------------
b-----------------------------------------
g---------------6~~~~~--------------------
d---7-6-7h9-9---7~~~~~--------------------
a---0-0-0---0---7~~~~~--------------------
E---------------5~~~~~--------------------
            
Submit corrections


        Big lessons Hard to play? Try these video lessons and learn fast Big lessons
        
↑ Back to top | Tablatures and chords for acoustic guitar and electric guitar, ukulele, drums are parodies/interpretations of the original songs. You may use it for private study, scholarship, research or language learning purposes only