Home » L » Led Zeppelin »

Led Zeppelin - When The Levee Breaks Chords

Artists:  A B C D E F G H I J K L M N O P Q R S T U V W X Y Z # 

When The Levee Breaks Chords

(ver. 2) Click to play this song!
Led Zeppelin
[Intro]
 
 E/G E E/G E A5 E/G E           E/G E             E/G E             E/G E E/G E A5 E/G E
e|-----------------------|----|------------------------------------------------------------|-----|
B|-----------------------|----|------------------------------------------------------------|-----|
G|1--1--1--1-----1-1-1-1-|----|-1--1--1--1--1--1--1--1--1--1--1--1--1--1--1--1-----1-1-1-1-|-----|
D|2--2--2--2--2--2-2-2-2-|-x4-|-2--2--2--2--2--2--2--2--2--2--2--2--2--2--2--2--2--2-2-2-2-|-x3--|
A|2--2--2--2--0--2-2-2-2-|----|-2--2--2--2--2--2--2--2--2--2--2--2--2--2--2--2--0--2-2-2-2-|-----|
E|3--0--3--0-----3-0-0-0-|----|-3--0--0--0--0--0--3--0--0--0--0--0--3--0--3--0-----3-0-0-0-|-----|
 
 E/G E E/G E A5 E/G E           E/G E             E/G E             E/G E E/G E A5 E/G E
e|-----------------------|----|------------------------------------------------------------|-----|
B|-----------------------|----|------------------------------------------------------------|-----|
G|1--1--1--1-----1-1-1-1-|----|-1--1--1--1--1--1--1--1--1--1--1--1--1--1--1--1-----1-1-1-1-|-----|
D|2--2--2--2--2--2-2-2-2-|-x1-|-2--2--2--2--2--2--2--2--2--2--2--2--2--2--2--2--2--2-2-2-2-|-x3--|
A|2--2--2--2--0--2-2-2-2-|----|-2--2--2--2--2--2--2--2--2--2--2--2--2--2--2--2--0--2-2-2-2-|-----|
E|3--0--3--0-----3-0-0-0-|----|-3--0--0--0--0--0--3--0--0--0--0--0--3--0--3--0-----3-0-0-0-|-----|
 
 E/G E E/G E A5
e|---------------|
B|---------------|
G|1--1--1--1-----|
D|2--2--2--2--2--|
A|2--2--2--2--0--|
E|3--0--3--0-----|
 
C   D   A5 G A5 E A5 G A5 E   x2
 
 
[Verse 1]
      E/G E             E/G E            E/G E E/G E A5 E/G E
If it keeps on raining, levee's goin' to break
      E/G E             E/G E            E/G E E/G E A5 E/G E
If it keeps on raining, levee's goin' to break
         E/G E             E/G E            E/G E E/G E A5 E/G E
When the levee breaks I'll have no place to stay
 
 
[Verse 2]
         E/G E              E/G E        E/G E E/G E A5 E/G E
Mean old levee taught me to weep and moan, Lord
         E/G E              E/G E        E/G E E/G E A5 E/G E
Mean old levee taught me to weep and moan
                 E/G E              E/G E              E/G E E/G E A5 E/G E
It's got what it takes to make a mountain man leave his home
    E/G E        E/G E       E/G E E/G E A5 E/G E
Oh, well,    oh, well,   oh, well.
 
C   D   A5 G A5 E A5 G A5 E     x2
E   B/E   Aadd9/E    B/F# D5 E  x2
 
 
[Bridge 1]
E
Don't it make you feel bad
            B/E
When you're trying to find your way home
    Aadd9/E          B/F# D5 E
You don't know which way to  go?
          E
If you're goin' down South
     B/E
They got no work to do
       Aadd9/E          B/F# D5 E
If you don't know about Chicago.
E     B/E   Aadd9/E    B/F# D5 E
A-ah, a-ah, a-ah
 
E     B/E   Aadd9/E    B/F# D5 E
 
 
[Instrumental]
 
 E/G E E/G E A5 E/G E           E/G E             E/G E             E/G E E/G E A5 E/G E
e|-----------------------|----|------------------------------------------------------------|-----|
B|-----------------------|----|------------------------------------------------------------|-----|
G|1--1--1--1-----1-1-1-1-|----|-1--1--1--1--1--1--1--1--1--1--1--1--1--1--1--1-----1-1-1-1-|-----|
D|2--2--2--2--2--2-2-2-2-|-x4-|-2--2--2--2--2--2--2--2--2--2--2--2--2--2--2--2--2--2-2-2-2-|-x3--|
A|2--2--2--2--0--2-2-2-2-|----|-2--2--2--2--2--2--2--2--2--2--2--2--2--2--2--2--0--2-2-2-2-|-----|
E|3--0--3--0-----3-0-0-0-|----|-3--0--0--0--0--0--3--0--0--0--0--0--3--0--3--0-----3-0-0-0-|-----|
 
 E/G E E/G E A5 E/G E           E/G E             E/G E             E/G E E/G E A5 E/G E
e|-----------------------|----|------------------------------------------------------------|-----|
B|-----------------------|----|------------------------------------------------------------|-----|
G|1--1--1--1-----1-1-1-1-|----|-1--1--1--1--1--1--1--1--1--1--1--1--1--1--1--1-----1-1-1-1-|-----|
D|2--2--2--2--2--2-2-2-2-|-x1-|-2--2--2--2--2--2--2--2--2--2--2--2--2--2--2--2--2--2-2-2-2-|-x3--|
A|2--2--2--2--0--2-2-2-2-|----|-2--2--2--2--2--2--2--2--2--2--2--2--2--2--2--2--0--2-2-2-2-|-----|
E|3--0--3--0-----3-0-0-0-|----|-3--0--0--0--0--0--3--0--0--0--0--0--3--0--3--0-----3-0-0-0-|-----|
 
 E/G E E/G E A5
e|---------------|
B|---------------|
G|1--1--1--1-----|
D|2--2--2--2--2--|
A|2--2--2--2--0--|
E|3--0--3--0-----|
 
C   D   A5 G A5 E A5 G A5 E   x2
 
 
[Verse 3]
E/G E                  E/G E                   E/G E E/G E A5 E/G E
Cryin' won't help you, praying won't do you no good
    E/G E                  E/G E                   E/G E E/G E A5 E/G E
No, cryin' won't help you, prayin' won't do you no good
         E/G E                   E/G E        E/G E E/G E A5 E/G E
When the levee breaks, mama, you got to move, ooh
 
E/G E  E/G E   E/G E E/G E A5 E/G E
 
 
[Verse 4]
E/G E                     E/G E        E/G E E/G E A5 E/G E
All last night sat on the levee and moaned
E/G E                     E/G E        E/G E E/G E A5 E/G E
All last night sat on the levee and moaned
          E/G E               E/G E      E/G E E/G E A5 E/G E
Thinkin' about my baby and my happy home.               Ah-oh
 
 
[Bridge 2]
C   D   A5 G A5 E A5 G A5 E  x2
E   B/E   Aadd9/E    B/F# D5 E  x2
 
E   B/E    Aadd9/E  B/F# D5 E
Ah  ha ah  ha ah    ha   ha ha
E   B/E    Aadd9/E  B/F# D5 E
Ah  ha ah  ha ah    ha   ha ha
 
E   B/E   Aadd9/E    B/F# D5 E  x2
 
 
[Outro]
E/G E  E/G E    E/G  E  E/G  E  A5 E/G E
              Goin' I'm goin' to Chicago
E/G E E/G E A5 E/G E
   Goin' to Chicago
E/G E E/G E A5 E/G E
   Goin' to Chicago
E/G E        E/G E         E/G  E  E/G  E  A5 E/G E
Sorry, but I can't take you, ahhh
E/G   E  E/G  E A5  E/G  E
Goin'  down,   goin' down now
(repeat and fade out)
            
Submit corrections

↑ Back to top | Tablatures and chords for acoustic guitar and electric guitar, ukulele, drums are parodies/interpretations of the original songs. You may use it for private study, scholarship, research or language learning purposes only