» » »

Led Zeppelin - Out On The Tiles Tabs

Artists:  A B C D E F G H I J K L M N O P Q R S T U V W X Y Z # 

Out On The Tiles Tabs

(ver. 3) Click to play this song!
Led Zeppelin
 Rating:
4/5 (4 votes)
                
 Anyone have the TAB for Out on the Tiles...whats at NEvada doersn't seem
 right
 
 Thanks

Out on the Tiles:  main riff

------------------------
------------------------
------------------------
-----------------4------
-------------4----------
--2--s--5---------------


--------------------------------------------------------
--------------------------------------------------------
--------------------------------------------------------
--1--2--1--2--1--2--1-----------------------------------
------------------------4---0---2--0--2--0--2--3--2--0--
            
Submit corrections

↑ Back to top | Tablatures and chords for acoustic guitar and electric guitar, ukulele, drums are parodies/interpretations of the original songs. You may use it for private study, scholarship, research or language learning purposes only