» » »

Led Zeppelin - Custard Pie Tabs

Artists:  A B C D E F G H I J K L M N O P Q R S T U V W X Y Z # 

Custard Pie Tabs

(ver. 3) Click to play this song!
Led Zeppelin
 Rating:
4/5 (4 votes)

 Custard Pie lessons Tabs too difficult? Try these video lessons and learn fast
 
                intro
e--------------------------------------|
B--------------------------------------|
G---2-2---------2---2--2-2-------------|
D---2-2-4p2-4s5-2-0-2--2-2-4-4-5-2-0-2-|
A---0-0-0r0-0r0-0-0-0--0-0-0-0-0-0-0-0-|
E--------------------------------------|

verse parts
e--------------------------------------|
B--------------------------------------|
G---2-2-2--2---2---2-2----------2---2--|
D---2-2-2--2---2---2-2-4-4-5----2-0-2--|
A---0-0-0--0---0---0-0-0-0-0----0-0-0--|
E------------3-------------------------|

e-----------------------|-------------|
B-----------------------|-------------|
G---7-------------------|-9--10-------|
D---7---7-6-5--5-4-3----|-9--10--3-5--|
A---5---5-4-3--3-2-1----|-7---8--3-5--|
E-----------------------|--------1-3--|

solo:
e-------------------------------------------------------|
B-------------------------------------------------------|
G--7b8-7b8-7b8-8b7-5-7--7b8-7b8-7b8-7b8b7-5-7b8-7b8-----|
D-------------------------------------------------------|
A-------------------------------------------------------|
E-------------------------------------------------------|

e----------------------------------5-----------------|
B----------------------------------------------------|
G-7b8-7b8-7b8b7-7b8-7b8-7b8-7b8b7-7-7p5-5h7-5-5-5----|
D--------------------------------------7-------7-----|
A----------------------------------------------------|
E----------------------------------------------------|


e----------------------------------------------------|
B--7-7-7-7-7p5---------------------------------------|
G--------------7---7p5-------------------------------|
D----------------7-----5s3p0-3p0-3--5-4-3--5-4-3-----|
A----------------------------------------------------|
E----------------------------------------------------|

e------------------------8-------------------------|
B-----------------------8-10-8-10-12b13-12b13------|
G-------5h7-5h7-5-5--s9----------------------------|
D-3s5h7------------7-------------------------------|
A--------------------------------------------------|
E--------------------------------------------------|

e----------------------------------------------------|
B-12b13b12-10--12b13-12b13-12b13-12b13b12s10--10-----|
G-------------------------------------------12--12s\-|
D----------------------------------------------------|
A----------------------------------------------------|
E----------------------------------------------------|

e--------------------------------------15------------------|
B----------10------------13-15-13h15-13--15b16b15-13h15-13-|
G----s10-12--12-10-12s14-----------------------------------|
D----------------------------------------------------------|
A----------------------------------------------------------|
E----------------------------------------------------------|

e-15---------15--------------15-----------------------|
B---15s14-13---15b14-13-15-13--15b16b15-13h15-13------|
G------------------------------------------------14v~-|
D-----------------------------------------------------|
A-----------------------------------------------------|
E-----------------------------------------------------|
            
Submit corrections


        Custard Pie lessons Hard to play? Try these video lessons and learn fast Custard Pie lessons
        
↑ Back to top | Tablatures and chords for acoustic guitar and electric guitar, ukulele, drums are parodies/interpretations of the original songs. You may use it for private study, scholarship, research or language learning purposes only