Home » L » Lana Del Rey »

Lana Del Rey - Young And Beautiful Tabs

Artists:  A B C D E F G H I J K L M N O P Q R S T U V W X Y Z # 

Young And Beautiful Tabs

(ver. 2) Click to play this song!
Lana Del Rey
[VERSE 1] and [VERSE 2}

I've seen the world, done it all, had my cake now
Diamonds,       Brilliant,     and Bel Air       now
e|---------------------------------------------------------------------------|
B|---------------------------------------------------------------------------|
G|-------------------------9/------------------------------------------------|
D|-9-/11-11-/9-/11-11-/9/------11/-9-----------------------------------------|
A|---------------------------------------------------------------------------|
E|---------------------------------------------------------------------------|

Hot summer nights,       mid-July,   when you and I were forever wild
The crazy days,     city lights,  the way you'd play with me like a child
e|---------------------------------------------------------------------------|
B|----------------------------------------8/---------------------------------|
G|--------------------------------11-9-9/----11/-11-9-7----------------------|
D|-------/-9/-11/11-9-11/9-9-9/----------------------------------------------|
A|--7/11---------------------------------------------------------------------|
E|---------------------------------------------------------------------------|

[CHORUS]

Will you still love me when I'm no longer young and beautiful? 
Will you still love me when I got nothing but my aching soul?
e|---------------------------------------------------------------------------|
B|---------------------------------------------------------------------------|
G|-9-7/9-7/ 7 /-9-7/-9-7/ 7 / 9p7---9 ---------------------------------------|
D|--------------------------------9------------------------------------------|
A|---------------------------------------------------------------------------|
E|---------------------------------------------------------------------------|

I know you will, I know you will, I know that you will
e|---------------------------------------------------------------------------|
B|---------------------------------------------------------------------------|
G|-11-9-9-9p7/11-9-9-9p7/11-9-9-7-9-11-9p11-9-7------------------------------|
D|---------------------------------------------------------------------------|
A|---------------------------------------------------------------------------|
E|---------------------------------------------------------------------------|

Will you still love me when I'm no longer beautiful?
e|---------------------------------------------------------------------------|
B|---------------------------------------------------------------------------|
G|-11-9-9-9p7---11-9-9-9p7--11-9-9-7-----------------------------------------|
D|---------------------------------------------------------------------------|
A|---------------------------------------------------------------------------|
E|---------------------------------------------------------------------------|

[BRIDGE]

Dear Lord, when I get to heaven, please let me bring my man
When he comes tell me that you'll let him in, father tell me if you can
e|---------------------------------------------------------------------------|
B|---------------------------------------------------------------------------|
G|------------------------------------------11-11----------------------------|
D|--------9/9/11/9/7-----7/---------9-9-9/-----------------------------------|
A|-9h12/-------------/9-------9h12-------------------------------------------|
E|---------------------------------------------------------------------------|

Oh that grace,   oh thy body,    oh that face,   makes me want to party
e|---------------------------------------------------------------------------|
B|-9-----------9----------9--------------------------------------------------|
G|---/11-9p7/----11-9p7-----11-9p7--9-9-9-9-9--9p7---------------------------|
D|---------------------------------------------------------------------------|
A|---------------------------------------------------------------------------|
E|---------------------------------------------------------------------------|

You're my sun,    you make me shine,  like diamonds
e|---------------------------------------------------------------------------|
B|---------------------------------------------------------------------------|
G|-/9-/9/ 9p7 /11-9-9-9p7/-11-9/9/9p7----------------------------------------|
D|---------------------------------------------------------------------------|
A|---------------------------------------------------------------------------|
E|---------------------------------------------------------------------------|

[REPEAT CHORUS]            
Submit corrections

↑ Back to top | Tablatures and chords for acoustic guitar and electric guitar, ukulele, drums are parodies/interpretations of the original songs. You may use it for private study, scholarship, research or language learning purposes only