Home » L » Lana Del Rey »

Lana Del Rey - Young And Beautiful Bass

Artists:  A B C D E F G H I J K L M N O P Q R S T U V W X Y Z # 

Young And Beautiful Bass

(ver. 1) Click to play this song!
Lana Del Rey
I've noticed that there are no bass tabs for this song, so I decided to tab them out
myself. If you listen to the DH Orchestral Version (the same version used in the music
video), you can hear the bass better and in my opinion, the bass lines in that song are 
amazing. Any way, I hope you enjoy it! (I also take tab requests for Guitar and Bass so 
if you
would like something tabbed out, I can try and help)

Tuning: Standard

Verse 1:
I've seen the world, done it all. Had my cake now... (X2)
*Let each note ring*
G |-------------------|
D |-------------------|
A |-------2--------2--|
E |-3--0-----3--0-----|

Hot summer nights, mid July...(X2)
G |----------------------------|
D |----------------------------|
A |----0--2--4-5-----0--2--4-5-|
E |-3-------------3------------|


Chorus:
Will you still love me when I'm no longer young and beautiful? (X4)
G |----------------------------|
D |----------------------------|
A |-------2--4-5--------2--4-5-|
E |-3--0----------3--0---------|

Last part of the chorus ends like this:
Will you still love me when I'm no longer beautiful?
G |---------------------------|
D |---------------------------|
A |-------2-------------------|
E |-3--0----------------------|


Verse 2:
I've seen the world, lit it up as my stage now... (X2)
*Let each note ring*
G |-------------------|
D |-------------------|
A |-------2--------2--|
E |-3--0-----3--0-----|

Hot summer days. rock and roll...(X2)
G |----------------------------|
D |----------------------------|
A |----0--2--4-5-----0--2--4-5-|
E |-3-------------3------------|


Chorus:
Will you still love me when I'm no longer young and beautiful? (X4)
G |----------------------------|
D |----------------------------|
A |-------2--4-5--------2--4-5-|
E |-3--0----------3--0---------|

Last part of the chorus ends like this:
Will you still love me when I'm no longer beautiful?
G |---------------------------|
D |---------------------------|
A |-------2-------------------|
E |-3--0----------------------|


Bridge:
Dear Lord, when I get to heaven, please let me bring my man...(X2)
G |---------------------------|
D |---------------------------|
A |-------2--4-5--------------|
E |-3--0----------------------|

Oh that grace, oh that body....
G |---------------------------|
D |------------0--------------|
A |--------0-2---0------------|
E |-0--2-3--------------------|

He's my sun, he makes me shine like diamonds.
*Let last note ring*
G |---------------------------|
D |---------------------------|
A |--------2-3----------------|
E |-0--2-3--------------------|


Chorus:
Will you still love me when I'm no longer young and beautiful? (X4)
G |----------------------------|
D |----------------------------|
A |-------2--4-5--------2--4-5-|
E |-3--0----------3--0---------|

Last part of the chorus ends like this:
Will you still love me when I'm no longer beautiful?
G |---------------------------|
D |---------------------------|
A |-------2-------------------|
E |-3--0----------------------|
            
Submit corrections

↑ Back to top | Tablatures and chords for acoustic guitar and electric guitar, ukulele, drums are parodies/interpretations of the original songs. You may use it for private study, scholarship, research or language learning purposes only