Home » L » Lamb Of God »

Lamb Of God - Reclamation Tabs

Artists:  A B C D E F G H I J K L M N O P Q R S T U V W X Y Z # 

Reclamation Tabs

(ver. 1) Click to play this song!
Lamb Of God
So this isnt finished yet, im going to be working on it more later, this is from 
memory from last night


0:17

d#------------------------------------------------------|
a#---------3--------------------------------------------|
f#-----2-----2------------2-----------------------------|
c#---------------------0----------6-6-------------------|
g#-0~-0--0----0-1p0-1p0----0--3-3-3-3-------------------|
c#-0~---------0-1p0-1p0----0--3-3-3-3-------------------| - Intro (Acoustic)

This played with the acoustic
0:38

d#------------------------------------------------------|
a#------3-----------------------------------------------|
f#---2---2----------------------------------------------|
c#----0-----------0--------6-6--------------------------|
g#----------0-0-0---0--3-3-3-3--------------------------|
c#-0~------0-----------3-3-3-3--------------------------| - Into Harmony (Electric clean)


0:54

Add the distortion..
d#-----------------------------------------------------------------|
a#-----------------------------------------------------------------|
f#-----------------------7-7----------7-7-------------7-7-7-7-7-7--|
c#-----------------------3/5----------3/5-------------5-5-5/6-6-6--|
g#-3-3-3-3-3-3--0--0-0-0-0-0--0-0-0-0-0-0--0-0-0-0-0--0-0-0-0-0-0--|
c#-3-3-3-3-3-3--0--0-0-0-0-0--0-0-0-0-0-0--0-0-0-0-0--0-0-0-0-0-0--|

   . . . . . .  .  . . .      . . . .      . . . .


1:11
          v Shimmy that note
d#-------------------------------------------------------|
a#--------3~---------------------------------------------|
f#--------2~---------------------------------------------|
c#--------------------------------6-6-6------------------|
d#-0~-------0-1-0-1-0--0----3-3-3-3-3-3------------------|
c#-0~--0----0-1-0-1-0--0-0--3-3-3-3-3-3------------------|
       .                 .
            
Submit corrections

↑ Back to top | Tablatures and chords for acoustic guitar and electric guitar, ukulele, drums are parodies/interpretations of the original songs. You may use it for private study, scholarship, research or language learning purposes only