Home » L » Lamb Of God »

Lamb Of God - Descending Tabs

Artists:  A B C D E F G H I J K L M N O P Q R S T U V W X Y Z # 

Descending Tabs

(ver. 1) Click to play this song!
Lamb Of God
Im just about 100% sure of this tab, its some what difficult,
the two bridge sections are pretty hard at full speed, other than that it isn't so hard
I have Mark and willie's parts(guitar 2) for most of the tab. they are mostly the same except
a couple of parts. Willie plays a variation on bridge but i basically combined the two into
one, it sounds pretty good. This is my first tab as well, so...go easy

Tuning- Drop D

Legend-
 *-pinch harmonic
 pm- palm muted (look for beneath the measure unless noted on the top)
 ]- play two parts together (look for them in the margins on the side)
 h-hammer on (duh)
 p-pull off (duh)

This part fades in..(if you gradually go down on the wah it helps to generate that sound)
|--------------------------------------------------------------------|
|--------------------------------------------------------------------|
|--------------------------------------------------------------------|
|--------------------------------------------------------------------|
|-13-----------12-13-----------12-13-----------12-13-----------13-12-|
|----12-0-12-0-------12-0-12-0-------12-0-12-0-------12-0-12-0-------|
                                                                      ]
|--------------------------------------------------------------------|
|--------------------------------------------------------------------|
|--------------------------------------------------------------------|
|--------------------------------------------------------------------|
|--------------12------------12------------12------------------------|
|---12-0-12-0-----12-0-12-0-----12-0-12-0-----12-0-12-0--------------|2x

|--------------------------------------------------------------------|
|--------------------------------------------------------------------|
|--------------------------------------------------------------------|
|--------------------------------------------------------------------|
|-13-----------12-13-----------12-13-----------12-13-----------13-12-|
|----12-0-12-0-------12-0-12-0-------12-0-12-0-------12-0-12-0-------|
                                                                      ]
|--------------------------------------------------------------------|
|--------------------------------------------------------------------|
|--------------------------------------------------------------------|
|--------------------------------------------------------------------|
|------------12-------------12-------------12------------------------|
|-12-0-12-0------12-0-12-0------12-0-12-0------12-0-12-0-------------|2x

|--------------------------------------------------------------------|
|--------------------------------------------------------------------|
|--------------------------------------------------------------------|
|-888888\77777\55555\3333\1------------------------------------------|
|-888888\77777\55555\3333\1---------------------------1--------------|
|-888888\77777\55555\3333\1--0-0-35-0-0-36-1-0-35-0-0-1-0------------|



Palm muted...
|--------------------------------------------------------------------|
|--------------------------------------------------------------------|
|--------------------------------------------------------------------|
|--------------------------------------------------------------------|
|-13-----------12-13-----------12-13-----------12-13-----------13-12-|
|----12-0-12-0-------12-0-12-0-------12-0-12-0-------12-0-12-0-------|

|--------------------------------------------------------------------|
|--------------------------------------------------------------------|
|--------------------------------------------------------------------|
|--------------------------------------------------------------------|
|------------12-------------12-------------12------------------------|
|-12-0-12-0------12-0-12-0------12-0-12-0------12-0-12-0-------------|4x

while guitar 2 plays..(joins in on the 3rd time)
                                         (let ring in to next part)
|--------------------------------------------------------------------|
|--2/3333/5555/66--5-6-8-6h8p6-5h6p5-2/3-33-3h5p3-3h5p3--------------|
|--------------------------------------------------------------------|
|--------------------------------------------------------------------|
|--------------------------------------------------------------------|
|--------------------------------------------------------------------|2x

|-----------------------------------------------------------------|
|-----------------------------------------------------------------|
|-----------------------------------------------------------------|
|-888888\77777\55555\33333\1--------------------------------------|
|-888888\77777\55555\33333\1---------------------------1----------|
|-888888\77777\55555\33333\1--0-0-35-0-0-36-1-0-35-0-0-1-0--------|

|--------------------------------|
|--------------------------------|
|--------------------------------|
|-888888\77777\55555\3333\1------|
|-888888\77777\55555\3333\1------|
|-888888\77777\55555\3333\1------|

|--------------------------------------------------------------------|
|--------------------------------------------------------------------|
|--------------------------------------------------------------------|
|--------------------------------------------------------------------|
|-13-----------12-13-----------12-13-----------12-13-----------13-12-|
|----12-0-12-0-------12-0-12-0-------12-0-12-0-------12-0-12-0-------|

|--------------------------------------------------------------------|
|--------------------------------------------------------------------|
|--------------------------------------------------------------------|
|--------------------------------------------------------------------|
|------------12-------------12-------------12------------------------|
|-12-0-12-0------12-0-12-0------12-0-12-0------12-0-12-0-------------|2x

Palm muted...
|--------------------------------------------------------------------|
|--------------------------------------------------------------------|
|--------------------------------------------------------------------|
|--------------------------------------------------------------------|
|-13-----------12-13-----------12-13-----------12-13-----------13-12-|
|----12-0-12-0-------12-0-12-0-------12-0-12-0-------12-0-12-0-------|

|--------------------------------------------------------------------|
|--------------------------------------------------------------------|
|--------------------------------------------------------------------|
|--------------------------------------------------------------------|
|------------12-------------12-------------12------------------------|
|--12-0-12-0-----12-0-12-0------12-0-12-0------12-0-12-0-------------|4x


while guitar 2 plays..(joins in on the 3rd time)
                                         (let ring in to next part)
|--------------------------------------------------------------------|
|--2/3333/5555/66--5-6-8-6h8p6-5h6p5-2/3-33--3h5p3-3h5p3-------------|
|--------------------------------------------------------------------|
|--------------------------------------------------------------------|
|--------------------------------------------------------------------|
|--------------------------------------------------------------------|2x

|----------------------------------------------------------------|
|----------------------------------------------------------------|
|----------------------------------------------------------------|
|-888888\77777\55555\3333\1--------------------------------------|
|-888888\77777\55555\3333\1---------------------------1----------|
|-888888\77777\55555\3333\1--0-0-35-0-0-36-1-0-35-0-0-1-0--------|

|-----------------------------------------------------------------|
|-----------------------------------------------------------------|
|-----------------------------------------------------------------|
|-888888\77777\55555\3333\1---------------------------------------|
|-888888\77777\55555\3333\1---------------------------------------|
|-888888\77777\55555\3333\1---------------------------------------|

|--------------------------------------------------------------------|
|--------------------------------------------------------------------|
|--------------------------------------------------------------------|
|-7----7h8p7----7h8--------------------------------------------------|
|-7----7h8p7----7h8--------------------------------------------------|
|-7-77-7h8p7-77-7h8-10-8h10p8-8-7-5-7-5-3-5-8------------------------|2x
    pm       pm
|--------------------------------------------------------------------|
|--------------------------------------------------------------------|
|--------------------------------------------------------------------|
|-0----10h12-0----10h12----------------------------------------------|
|-0----10h12-0----10h12----------------------------------------------|
|-0-00-10h12-0-00-10h12-16-13h16p13-13-12-13-16-17-16-10-12----------|2x
    pm         pm   

|-----------------------------------------------------------------|
|-----------------------------------------------------------------|
|-----------------------------------------------------------------|
|-888888\77777\55555\3333\1---------------------------------------|
|-888888\77777\55555\3333\1---------------------------1-----------|
|-888888\77777\55555\3333\1--0-0-35-0-0-36-1-0-35-0-0-1-0---------|

|-----------------------------------------------------------------|
|-----------------------------------------------------------------|
|-----------------------------------------------------------------|
|-888888\77777\55555\3333\1---------------------------------------|
|-888888\77777\55555\3333\1---------------------------------------|
|-888888\77777\55555\3333\1---------------------------------------|

|--------------------------------------------------------------------|
|--------------------------------------------------------------------|
|--------------------------------------------------------------------|
|--------------------------------------------------------------------|
|--------------------------------------------------------------------|
|-88888888877777777555555533333331-0---------------------------------|

|--------------------------------------------------------------------|
|--------------------------------------------------------------------|
|--------------------------------------------------------------------|
|--------------------------------------------------------------------|
|-12-----------12-----------12------------12-----------13------------|
|----12-0-12-0----12-0-12-0-----12-0-12-0----12-0-12-0----12-0-12-0--|

|--------------------------------------------------------------------|
|--------------------------------------------------------------------|
|--------------------------------------------------------------------|
|--------------------------------------------------------------------|
|-12-13-----------12-13-----------12-13-----------13-12--------------|
|-------12-0-12-0-------12-0-12-0-------12-0-12-0-------12-0-12-0----|

|--------------------------------------------------------------------|
|--------------------------------------------------------------------|
|--------------------------------------------------------------------|
|--------------------------------------------------------------------|
|-12-----------12-----------12---------------------------------------|
|----12-0-12-0----12-0-12-0----12-0-12-0-----------------------------|

then guitar 2 comes in with the part below...
|--------------------------------------------------------------------|
|--------------------------------------------------------------------|
|--------------------------------------------------------------------|
|--------------------------------------------------------------------|
|-13-----------12-13-----------12-13-----------12-13-----------13-12-|
|----12-0-12-0-------12-0-12-0-------12-0-12-0-------12-0-12-0-------|
                                                                      ]2x
|--------------------------------------------------------------------|
|--------------------------------------------------------------------|
|--------------------------------------------------------------------|
|--------------------------------------------------------------------|
|-------------12-------------12-------------12-----------------------|
|--12-0-12-0------12-0-12-0------12-0-12-0------12-0-12-0------------|

guitar 2
|--------------------------------------------------------------------|
|--2/3333/5555/66--5-6-8-6h8p6-5h6p5-2/3-33--3h5p3-3h5p3-------------|
|--------------------------------------------------------------------|
|--------------------------------------------------------------------|
|--------------------------------------------------------------------|
|--------------------------------------------------------------------|2x

(Slight pinch harmonics on part below)
|--------------------------------------------------------------------|
|--------------------------------------------------------------------|
|--------------------------------------------------------------------|
|--------------------------------------------------------------------|
|-------------12*-----------12*------------12*------------12*--------|
|--12-0-12-0-----12-0-12-0------12-0-12-0------12-0-12-0-----12-0-12-|2x

end on..
|-------|
|-------|
|-------|
|0~-----|
|0~-----|
|0~-----|
            
Submit corrections

↑ Back to top | Tablatures and chords for acoustic guitar and electric guitar, ukulele, drums are parodies/interpretations of the original songs. You may use it for private study, scholarship, research or language learning purposes only