» » »

Kutless - Strong Tower Tabs

Artists:  A B C D E F G H I J K L M N O P Q R S T U V W X Y Z # 

Strong Tower Tabs

(ver. 3) Click to play this song!
Kutless
 Rating:
4/5 (4 votes)

 Strong Tower lessons Tabs too difficult? Try these video lessons and learn fast
 
                Strong Tower
Kutless
Strong Tower (2005)


INTRO:

       B       C#m E   A                 B       C#m E   A       E   B   
e ||----------------------------------------------------------------------||
B ||---4-4-4-4-5-5-0-0-2-2-2-2-2-2-2-2---4-4-4-4-5-5-0-0-2-2-2-2-9-9-7-7--||
G ||---4-4-4-4-6-6-1-1-2-2-2-2-2-2-2-2---4-4-4-4-6-6-1-1-2-2-2-2-9-9-8-8--||
D ||---4-4-4-4-6-6-2-2-2-2-2-2-2-2-2-2---4-4-4-4-6-6-2-2-2-2-2-2-9-9-9-9--||
A ||---2-2-2-2-4-4-2-2-0-0-0-0-0-0-0-0---2-2-2-2-4-4-2-2-0-0-0-0-7-7-9-9--||
E ||----------------------------------------------------------------------||


VERSE:
                                                                          ___
       B       C#m E   A                 B       C#m E   A       E   B       \\
e ||----------------------------------------------------------------------||  \
B ||---4-4-4-4-5-5-0-0-2-2-2-2-2-2-2-2---4-4-4-4-5-5-0-0-2-2-2-2-9-9-7-7--||   \
G ||---4-4-4-4-6-6-1-1-2-2-2-2-2-2-2-2---4-4-4-4-6-6-1-1-2-2-2-2-9-9-8-8--||    \__X2
D ||---4-4-4-4-6-6-2-2-2-2-2-2-2-2-2-2---4-4-4-4-6-6-2-2-2-2-2-2-9-9-9-9--||    /
A ||---2-2-2-2-4-4-2-2-0-0-0-0-0-0-0-0---2-2-2-2-4-4-2-2-0-0-0-0-7-7-9-9--||   /
E ||----------------------------------------------------------------------||  /
									  ___/


PRECHORUS/CHORUS:

       F#m	   G#m A	       F#m	   G#m A	(HOLD)		    E
e ||---2-2-2-2-2-2-4-4-5-5-5-5-5-5-5-5-2-2-2-2-2-2-4-4-5-5-5-5-5--------------------0---||
B ||---2-2-2-2-2-2-4-4-5-5-5-5-5-5-5-5-2-2-2-2-2-2-4-4-5-5-5-5-5--------------------0---||
G ||---2-2-2-2-2-2-4-4-6-6-6-6-6-6-6-6-2-2-2-2-2-2-4-4-6-6-6-6-6--------------------1---||
D ||---4-4-4-4-4-4-6-6-7-7-7-7-7-7-7-7-4-4-4-4-4-4-6-6-7-7-7-7-7--------------------2---||
A ||---4-4-4-4-4-4-6-6-7-7-7-7-7-7-7-7-4-4-4-4-4-4-6-6-7-7-7-7-7--------------------2---||
E ||---2-2-2-2-2-2-4-4-5-5-5-5-5-5-5-5-2-2-2-2-2-2-4-4-5-5-5-5-5--------------------0---||
								"You are my Strong Tower"

E(cont)     C#m
Shelter over me
		A
Beautiful and mighty

Everlasting King
		   E
You are my strong tower
		   C#m
Fortress when I'm weak
		      A
Your name is true and holy
	  B	 C#m	  A
And Your face is all I seek


VERSE:
									  ___
       B       C#m E   A                 B       C#m E   A       E   B       \
e ||----------------------------------------------------------------------||  \
B ||---4-4-4-4-5-5-0-0-2-2-2-2-2-2-2-2---4-4-4-4-5-5-0-0-2-2-2-2-9-9-7-7--||   \
G ||---4-4-4-4-6-6-1-1-2-2-2-2-2-2-2-2---4-4-4-4-6-6-1-1-2-2-2-2-9-9-8-8--||    \__X2
D ||---4-4-4-4-6-6-2-2-2-2-2-2-2-2-2-2---4-4-4-4-6-6-2-2-2-2-2-2-9-9-9-9--||    /
A ||---2-2-2-2-4-4-2-2-0-0-0-0-0-0-0-0---2-2-2-2-4-4-2-2-0-0-0-0-7-7-9-9--||   /
E ||----------------------------------------------------------------------||  /
									  ___/


PRECHORUS/CHORUS:
       F#m	   G#m A	       F#m         G#m A	(HOLD)		    E
e ||---2-2-2-2-2-2-4-4-5-5-5-5-5-5-5-5-2-2-2-2-2-2-4-4-5-5-5-5-5--------------------0---||
B ||---2-2-2-2-2-2-4-4-5-5-5-5-5-5-5-5-2-2-2-2-2-2-4-4-5-5-5-5-5--------------------0---||
G ||---2-2-2-2-2-2-4-4-6-6-6-6-6-6-6-6-2-2-2-2-2-2-4-4-6-6-6-6-6--------------------1---||
D ||---4-4-4-4-4-4-6-6-7-7-7-7-7-7-7-7-4-4-4-4-4-4-6-6-7-7-7-7-7--------------------2---||
A ||---4-4-4-4-4-4-6-6-7-7-7-7-7-7-7-7-4-4-4-4-4-4-6-6-7-7-7-7-7--------------------2---||
E ||---2-2-2-2-2-2-4-4-5-5-5-5-5-5-5-5-2-2-2-2-2-2-4-4-5-5-5-5-5--------------------0---||
								"You are my Strong Tower"

E(cont)     C#m
Shelter over me
		A
Beautiful and mighty

Everlasting King
		   E
You are my strong tower
		   C#m
Fortress when I'm weak
		      A
Your name is true and holy
	  B	 C#m	  A
And Your face is all I seek
	  B	 C#m	  A
And Your face is all I seek
	    B	   C#m	    A
Yeah, Your face is all I seek


       F#5	   G#5 A5	       F#5	   G#5 A5      A (HOLD)		    E
e ||-----------------------------------------------------------5--------------------0---||
B ||-----------------------------------------------------------5--------------------0---||
G ||-----------------------------------------------------------6--------------------1---||
D ||---4-4-4-4-4-4-6-6-7-7-7-7-7-7-7-7-4-4-4-4-4-4-6-6-7-7-7-7-7--------------------2---||
A ||---4-4-4-4-4-4-6-6-7-7-7-7-7-7-7-7-4-4-4-4-4-4-6-6-7-7-7-7-7--------------------2---||
E ||---2-2-2-2-2-2-4-4-5-5-5-5-5-5-5-5-2-2-2-2-2-2-4-4-5-5-5-5-5--------------------0---||
    PM . . . . . . . . . . . . . . . . . . . . . . . . . . . .	"You are my Strong Tower"


E(cont)     C#m
Shelter over me
		A
Beautiful and mighty

Everlasting King
		   E
You are my strong tower
		   C#m
Fortress when I'm weak
		      A
Your name is true and holy

(Name is true and holy)
		   E
You are my strong tower
	     C#m
Shelter over me
		A
Beautiful and mighty

Everlasting King
		   E
You are my strong tower
		   C#m
Fortress when I'm weak
		      A
Your name is true and holy
	  B	 C#m	  A
And Your face is all I seek

Ending Chords: B, C#m, A
            
Submit corrections


        Strong Tower lessons Hard to play? Try these video lessons and learn fast Strong Tower lessons
        
↑ Back to top | Tablatures and chords for acoustic guitar and electric guitar, ukulele, drums are parodies/interpretations of the original songs. You may use it for private study, scholarship, research or language learning purposes only