» » »

Kutless - Strong Tower Tabs

Artists:  A B C D E F G H I J K L M N O P Q R S T U V W X Y Z # 

Strong Tower Tabs

(ver. 1) Click to play this song!
Kutless
 Rating:
4/5 (4 votes)

 Strong Tower lessons Tabs too difficult? Try these video lessons and learn fast
 
                This Song Is with a Capo on the Second Fret, So It's Going to Be Tuned A Step Up.

(Intro)[Guitar 1]Play Three Times
  F#|------------0-0-|----------------|------------0-0-|--------2-2-0-0-|
  B |2-2-2-2-3-3-3-3-|0-0-0-0-0-0-0-0-|2-2-2-2-3-3-3-3-|0-0-0-0-0-0-0-0-|
4 E |2-2-2-2-2-2-2-2-|4-4-4-4-4-4-4-4-|2-2-2-2-2-2-2-2-|4-4-4-4-4-4-4-4-|X3
4 A |----------------|----------------|----------------|----------------|
  C#|----------------|----------------|----------------|----------------|
  F#|----------------|----------------|----------------|----------------|

(Verse 1)[Guitar 2] This Part starts as soon as you play the intro on the second 
I wander through... "
  F#|x-x-x-x-x-x-x-x-|x-x-x-x-x-x-x-x-|x-x-x-x-x-x-x-x-|x-x-x-x-x-x-x-x-|
  B |0-0-0-0-0-0-3-3-|3-3-3-3-3-3-3-3-|0-0-0-0-0-0-3-3-|3-3-3-3-3-3-3-3-|
4 E |2-2-2-2-2-2-0-0-|4-4-4-4-4-4-4-4-|2-2-2-2-2-2-0-0-|4-4-4-4-4-4-4-4-|X2
4 A |2-2-2-2-2-2-0-0-|4-4-4-4-4-4-4-4-|2-2-2-2-2-2-0-0-|4-4-4-4-4-4-4-4-|
  C#|0-0-0-0-0-0-2-2-|2-2-2-2-2-2-2-2-|0-0-0-0-0-0-2-2-|2-2-2-2-2-2-2-2-|
  F#|x-x-x-x-x-x-x-x-|x-x-x-x-x-x-x-x-|x-x-x-x-x-x-x-x-|x-x-x-x-x-x-x-x-|

(Pre-Chorus)[Guitar 1, 2]:"I go running... "
  F#|----------------|----------------|----------------|----------------|
  B |----------------|----------------|----------------|----------------|
4 E |----------------|----------------|----------------|----------------|X1
4 A |2-2-2-2-2-2-2-4-|5-5-5-5-5-5-5-4-|2-2-2-2-2-2-2-4-|5-5-5-5-5-5-5-~-|
  C#|2-2-2-2-2-2-2-4-|5-5-5-5-5-5-5-4-|2-2-2-2-2-2-2-4-|5-5-5-5-5-5-5-~-|
  F#|0-0-0-0-0-0-0-2-|3-3-3-3-3-3-3-2-|0-0-0-0-0-0-0-2-|3-3-3-3-3-3-3-~-|

(Chorus) [Guitar 1, 2]:"You are My Strong Tower..."
  F#|0-0-0-0-0-0-0-0-|0-0-0-0-0-0-0-0-|3-3-3-3-3-3-3-3-|3-3-3-3-3-3-3-3-|
  B |3-3-3-3-3-3-3-3-|3-3-3-3-3-3-3-3-|3-3-3-3-3-3-3-3-|3-3-3-3-3-3-3-3-|
4 E |2-2-2-2-2-2-2-2-|4-4-4-4-4-4-4-4-|0-0-0-0-0-0-0-0-|0-0-0-0-0-0-0-0-|X1
4 A |0-0-0-0-0-0-0-0-|4-4-4-4-4-4-4-4-|0-0-0-0-0-0-0-0-|0-0-0-0-0-0-0-0-|
  C#|0-0-0-0-0-0-0-0-|2-2-2-2-2-2-2-2-|2-2-2-2-2-2-2-2-|2-2-2-2-2-2-2-2-|
  F#|----------------|----------------|----------------|3-3-3-3-3-3-3-3-|

  F#|0-0-0-0-0-0-0-0-|0-0-0-0-0-0-0-0-|3-3-3-3-3-3-3-3-|----------3-~-~-|
  B |3-3-3-3-3-3-3-3-|3-3-3-3-3-3-3-3-|3-3-3-3-3-3-3-3-|2-~-------3-~-~-|
4 E |2-2-2-2-2-2-2-2-|4-4-4-4-4-4-4-4-|0-0-0-0-0-0-0-0-|2-~-4-4-~-0-~-~-|X1
4 A |0-0-0-0-0-0-0-0-|4-4-4-4-4-4-4-4-|0-0-0-0-0-0-0-0-|2-~-4-4-~-0-~-~-|
  C#|0-0-0-0-0-0-0-0-|2-2-2-2-2-2-2-2-|2-2-2-2-2-2-2-2-|----2-2-~-2-~-~-|
  F#|----------------|----------------|----------------|----------3-~-~-|

(Verse 2)(Same Time)
[Guitar 1]:"In the middle of my darkness..."
  F#|------------0-0-|----------------|------------0-0-|--------2-2-0-0-|
  B |2-2-2-2-3-3-3-3-|0-0-0-0-0-0-0-0-|2-2-2-2-3-3-3-3-|0-0-0-0-0-0-0-0-|
4 E |2-2-2-2-2-2-2-2-|4-4-4-4-4-4-4-4-|2-2-2-2-2-2-2-2-|4-4-4-4-4-4-4-4-|X2
4 A |----------------|----------------|----------------|----------------|
  C#|----------------|----------------|----------------|----------------|
  F#|----------------|----------------|----------------|----------------|

[Guitar 2] :"In the middle of my darkness... "
  F#|x-x-x-x-x-x-x-x-|x-x-x-x-x-x-x-x-|x-x-x-x-x-x-x-x-|x-x-x-x-x-x-x-x-|
  B |0-0-0-0-0-0-3-3-|3-3-3-3-3-3-3-3-|0-0-0-0-0-0-3-3-|3-3-3-3-3-3-3-3-|
4 E |2-2-2-2-2-2-0-0-|4-4-4-4-4-4-4-4-|2-2-2-2-2-2-0-0-|4-4-4-4-4-4-4-4-|X2
4 A |2-2-2-2-2-2-0-0-|4-4-4-4-4-4-4-4-|2-2-2-2-2-2-0-0-|4-4-4-4-4-4-4-4-|
  C#|0-0-0-0-0-0-2-2-|2-2-2-2-2-2-2-2-|0-0-0-0-0-0-2-2-|2-2-2-2-2-2-2-2-|
  F#|x-x-x-x-x-x-x-x-|x-x-x-x-x-x-x-x-|x-x-x-x-x-x-x-x-|x-x-x-x-x-x-x-x-|

(Pre-Chorus)[Guitar 1, 2]:"I go running... "
  F#|----------------|----------------|----------------|----------------|
  B |----------------|----------------|----------------|----------------|
4 E |----------------|----------------|----------------|----------------|X1
4 A |2-2-2-2-2-2-2-4-|5-5-5-5-5-5-5-4-|2-2-2-2-2-2-2-4-|5-5-5-5-5-5-5-~-|
  C#|2-2-2-2-2-2-2-4-|5-5-5-5-5-5-5-4-|2-2-2-2-2-2-2-4-|5-5-5-5-5-5-5-~-|
  F#|0-0-0-0-0-0-0-2-|3-3-3-3-3-3-3-2-|0-0-0-0-0-0-0-2-|3-3-3-3-3-3-3-~-|

(Chorus) [Guitar 1, 2]:"You are My Strong Tower..."
  F#|0-0-0-0-0-0-0-0-|0-0-0-0-0-0-0-0-|3-3-3-3-3-3-3-3-|3-3-3-3-3-3-3-3-|
  B |3-3-3-3-3-3-3-3-|3-3-3-3-3-3-3-3-|3-3-3-3-3-3-3-3-|3-3-3-3-3-3-3-3-|
4 E |2-2-2-2-2-2-2-2-|4-4-4-4-4-4-4-4-|0-0-0-0-0-0-0-0-|0-0-0-0-0-0-0-0-|X1
4 A |0-0-0-0-0-0-0-0-|4-4-4-4-4-4-4-4-|0-0-0-0-0-0-0-0-|0-0-0-0-0-0-0-0-|
  C#|0-0-0-0-0-0-0-0-|2-2-2-2-2-2-2-2-|2-2-2-2-2-2-2-2-|2-2-2-2-2-2-2-2-|
  F#|----------------|----------------|----------------|3-3-3-3-3-3-3-3-|

  F#|0-0-0-0-0-0-0-0-|0-0-0-0-0-0-0-0-|3-3-3-3-3-3-3-3-|----------3-~-~-|
  B |3-3-3-3-3-3-3-3-|3-3-3-3-3-3-3-3-|3-3-3-3-3-3-3-3-|2-~-------3-~-~-|
4 E |2-2-2-2-2-2-2-2-|4-4-4-4-4-4-4-4-|0-0-0-0-0-0-0-0-|2-~-4-4-~-0-~-~-|...
4 A |0-0-0-0-0-0-0-0-|4-4-4-4-4-4-4-4-|0-0-0-0-0-0-0-0-|2-~-4-4-~-0-~-~-|
  C#|0-0-0-0-0-0-0-0-|2-2-2-2-2-2-2-2-|2-2-2-2-2-2-2-2-|----2-2-~-2-~-~-|
  F#|----------------|----------------|----------------|----------3-~-~-|

  F#|----------3-3-3-|----------3-~-~-|----------------|----------------|
  B |2-~-------3-3-3-|2-~-------3-~-~-|----------------|----------------|
4 E |2-~-4-4-~-0-0-0-|2-~-4-4-~-0-~-~-|----------------|----------------|
4 A |2-~-4-4-~-0-0-0-|2-~-4-4-~-0-~-~-|----------------|----------------|X1
  C#|----2-2-~-2-2-2-|----2-2-~-2-~-~-|----------------|----------------|
  F#|----------3-3-3-|----------3-~-~-|----------------|----------------|

(Pre-Chorus)[Violins]----


(Chorus) [Guitar 1, 2]:"You are My Strong Tower..."
  F#|0-0-0-0-0-0-0-0-|0-0-0-0-0-0-0-0-|3-3-3-3-3-3-3-3-|3-3-3-3-3-3-3-3-|
  B |3-3-3-3-3-3-3-3-|3-3-3-3-3-3-3-3-|3-3-3-3-3-3-3-3-|3-3-3-3-3-3-3-3-|
4 E |2-2-2-2-2-2-2-2-|4-4-4-4-4-4-4-4-|0-0-0-0-0-0-0-0-|0-0-0-0-0-0-0-0-|X1
4 A |0-0-0-0-0-0-0-0-|4-4-4-4-4-4-4-4-|0-0-0-0-0-0-0-0-|0-0-0-0-0-0-0-0-|
  C#|0-0-0-0-0-0-0-0-|2-2-2-2-2-2-2-2-|2-2-2-2-2-2-2-2-|2-2-2-2-2-2-2-2-|
  F#|----------------|----------------|----------------|3-3-3-3-3-3-3-3-|

  F#|0-0-0-0-0-0-0-0-|0-0-0-0-0-0-0-0-|3-3-3-3-3-3-3-3-|----------3-~-~-|
  B |3-3-3-3-3-3-3-3-|3-3-3-3-3-3-3-3-|3-3-3-3-3-3-3-3-|2-~-------3-~-~-|
4 E |2-2-2-2-2-2-2-2-|4-4-4-4-4-4-4-4-|0-0-0-0-0-0-0-0-|2-~-4-4-~-0-~-~-|...
4 A |0-0-0-0-0-0-0-0-|4-4-4-4-4-4-4-4-|0-0-0-0-0-0-0-0-|2-~-4-4-~-0-~-~-|
  C#|0-0-0-0-0-0-0-0-|2-2-2-2-2-2-2-2-|2-2-2-2-2-2-2-2-|----2-2-~-2-~-~-|
  F#|----------------|----------------|----------------|----------3-~-~-|

  F#|----------3-~-~-|----------------|----------------|----------------|
  B |2-~-------3-~-~-|----------------|----------------|----------------|
4 E |2-~-4-4-~-0-~-~-|----------------|----------------|----------------|
4 A |2-~-4-4-~-0-~-~-|----------------|----------------|----------------|X1
  C#|----2-2-~-2-~-~-|----------------|----------------|----------------|
  F#|----------3-~-~-|----------------|----------------|----------------|
            
Submit corrections


        Strong Tower lessons Hard to play? Try these video lessons and learn fast Strong Tower lessons
        
↑ Back to top | Tablatures and chords for acoustic guitar and electric guitar, ukulele, drums are parodies/interpretations of the original songs. You may use it for private study, scholarship, research or language learning purposes only