» » »

Kutless - Strong Tower Tabs

Artists:  A B C D E F G H I J K L M N O P Q R S T U V W X Y Z # 

Strong Tower Tabs

(ver. 2) Click to play this song!
Kutless
 Rating:
4/5 (4 votes)

 Strong Tower lessons Tabs too difficult? Try these video lessons and learn fast
 
                I have played this with a band so i know it is correct

INTRO
Guitar 1 (clean)
play through the verses
e ||----------------------------------------------------------------------||
B ||------------------------------------------9977------------------------||
G ||------8888994466666666-------888899446666-----------------------------||
D ||----------------------------------------------------------------------||
A ||----------------------------------------------------------------------||
E ||----------------------------------------------------------------------||

Guitar 2 (clean)
verse
play over guitar 1 picking

e ||----------------------------------------------------------------------||
B ||----------------------------------------------------------------------||
G ||-----------------66666666---------------------------------------------||
D ||--99999---7777---66666666---------------------------------------------||
A ||--99999---7777---44444444---------------------------------------------||
E ||--77777---5555--------------------------------------------------------||


both guitars
pre-chorus
e ||----------------------------------------------------------------------||
B ||----------------------------------------------------------------------||
G ||----------------------------------------------------------------------||
D ||--44444444--77777777---44444444--77777777-----------------------------||
A ||--44444444--77777777---44444444--77777777-----------------------------||
E ||--22222222--55555555---22222222--55555555-----------------------------||


chorus both guitars
e ||----------------------------------------------------------------------||
B ||----------------------------------------------------------------------||
G ||-----------666666-----------------------------------------------------||
D ||--222222---666666--777777777777---------------------------------------||
A ||--222222---444444--777777777777---------------------------------------||
E ||--000000-----------555555555555---------------------------------------||

e ||----------------------------------------------------------------------|
B ||----------------------------------------------------------------------|
G ||-----------666666----------------66-----------------------------------|
D ||--222222---666666--777777----99--66---7-------------------------------|
A ||--222222---444444--777777----99--44---7-------------------------------|
E ||--000000-----------555555----77-------5-------------------------------|              
                           ^
                                        Let ring

e ||-------------------------------------------|
B ||-------------------------------------------|
G ||------66-----------------------------------|
D ||--99--66---7-------------------------------|
A ||--99--44---7-------------------------------|
E ||--77-------5-------------------------------|
            
Submit corrections


        Strong Tower lessons Hard to play? Try these video lessons and learn fast Strong Tower lessons
        
↑ Back to top | Tablatures and chords for acoustic guitar and electric guitar, ukulele, drums are parodies/interpretations of the original songs. You may use it for private study, scholarship, research or language learning purposes only