Home » K » Kurt Vile »

Kurt Vile - Wheelhouse Tabs

Artists:  A B C D E F G H I J K L M N O P Q R S T U V W X Y Z # 

Wheelhouse Tabs

(ver. 1) Click to play this song!
Kurt Vile
Tuning: E A# D# G B D#

Intro:

D#|--------0----------0------------0------4--2--0-----------------------------|
B |-----3-----3----3-----3------1-----1------------3--4-4-4-4-4--3--3h4p3-----|
G |--3----------3------------0---------------------------------------------0--|
D#|---------------------------------------------------------------------------|
A#|---------------------------------------------------------------------------|
E |---------------------------------------------------------------------------|

D#|---------------------------------------------------------------------------|
B |---------------3---3--1----------------------------------------------------|
G |-------------3---3-------3--0----------------------------------------------|
D#|---0h2b3-0---------------------2/4\2--0--------------------------2---------|
A#|-------------------------------------------4--5-5-5-5-5--0--4h5------------|
E |---------------------------------------------------------------------------|

D#|---------------------------------------------------------------------------|
B |---------------------------------------------------------------------------|
G |---------------------------------------------------------------------------|
D#|---4--2--0-----------------------------------------------------------------|
A#|------------4--------------------------------------------------------------|
E |---------------------------------------------------------------------------|

Main riff (he alternates the hammer ons):

D#|---------------------------------------------------------------------------|
B |---------------------------------------------------------------------------|
G |--------------0----------0------------0----------0--------------0----------|
D#|-----------0----------0------------0----------0-------------0--------------| etc..
A#|---0--0h2-------2--0--------0--2--------2--0--------0--0h2--------2--0-----|
E |---------------------------------------------------------------------------|

During the bridge Kurt plays: 

D#|---------------------------------------------------------------------------|
B |---------------------------------------------------------------------------|
G |--------5/3--------3------5/3-----3-------------0-----------0--------------|
D#|-----0----------0-------0-------0------------0-----------0-----------------|
A#|--5----------0--------5-------0------0--0h2--------2--0--------------------|
E |---------------------------------------------------------------------------|            
Submit corrections

↑ Back to top | Tablatures and chords for acoustic guitar and electric guitar, ukulele, drums are parodies/interpretations of the original songs. You may use it for private study, scholarship, research or language learning purposes only