Home » K » Kurt Vile »

Kurt Vile - Snowflakes Are Dancing Tabs

Artists:  A B C D E F G H I J K L M N O P Q R S T U V W X Y Z # 

Snowflakes Are Dancing Tabs

(ver. 1) Click to play this song!
Kurt Vile
 Rating:
4/5 (4 votes)
                -------------------------------------------------------------------------------
-------------------------------------------------------------------------------



>>> Chords <<<             >> Bend_1 <<          >> Hammer_On_1 <<

          EADGBe
C       = x32010          e|---5b5br5---|      e|-0(0)--00-0(0)-00-|
C*      = x32013          B|---3(3)-----|      B|-3(3)--33-3(3)-33-|
C/G     = 332010          G|---0(0)-----|      G|-0h2---22-0h2--22-|
Cadd9   = x32030          D|---4(4)-----|      D|-0(0)--00-0(0)-00-|
Dadd4   = x54035          A|---5(5)-----|      A|------------------|
Dadd4+9 = x54030          E|------------|      E|------------------|
Dsus2   = xx0230
Dsus4   = xx0233
E       = 022100
Eadd9   = 022102
F       = xx3211
G       = 355433
G6      = 355000



E Eadd9   C* (C) Dadd4          C*
E Eadd9   C* (C) Dadd4+9        C*
E Eadd9   C* (C) Dadd4 (Bend_1) C*
G6        C/G    Dsus2          C/G   C/G

E         Eadd9         C*      Dadd4         C*
 Bought a ticket from a tin man,    he was my main man 
E   Eadd9     C*        Dadd4+9            C* 
 He taught me something,      he taught me everything 
E        Eadd9   C*    Dadd4          C*
 Through my dark day,      he led the way 
 G6            C/G    Dsus2   C/G    C/G
Again I stray away,  again I  stay

Cadd9   Dsus2   Dsus2 (Hammer_On_1)   C/G
Cadd9   Dsus2   Dsus2 (Hammer_On_1)   C/G

E      Eadd9  C*            Dadd4         C*
 There is but one true love,    within my heart 
E      Eadd9  C*      Dadd4+9      C*
 There is but one man,      that I am 
E     Eadd9 C*            Dadd4          C*
 When I'm  away out there,    I wanna go home 
E     Eadd9 C*   Dadd4+9             C*
 When I am  home,      my head stays out there


          E             Dsus2                       C/G
e|----------0---0---------------0---------------------------------------|
B|------3/5---5---5\3p0-----3-----3-------3-----3---1---1-1-1-1--1------|
G|--2/4-----------------2-----2-----2---2-2b--2-2b--0---0-0-0-0--0------|
D|--------------------------------------0-0---0-0---2---2-0h2-2--2------|
A|--------------------------------------------------3---3-3-3-3--3------|
E|--------------------------------------------------3---3-3-3-3--3------|

          E             Dsus2                       C/G
e|----------0---0---------------0---------------------------------------|
B|------3/5---5---5\3p0-----3-----3-------3-----3---1---1-1-1-1--1------|
G|--2/4-----------------2-----2-----2---2-2b--2-2b--0---0-0-0-0--0------|
D|--------------------------------------0-0---0-0---2---2-0h2-2--2------|
A|--------------------------------------------------3---3-3-3-3--3------|
E|--------------------------------------------------3---3-3-3-3--3------|

    C              D               Cadd9         Dsus2               C/G     
e|---------------------------------0-0-00-0-0-0--0-0-0-0000-0--000332-0-|
B|---------------------------------3-3-33-3-3-3--3-3-3-3333-3--333333-1-|
G|---------------------------------0-0-00-0-0-0--2-2-2-2222-0h2222222-0-|
D|----2-5-2---5-2----4-7-4---7-4---2-2-22-2-2-2--0-0-0-0000-0--000000-2-|
A|--3(3)---3(3)----5(5)----5(5)----3-3-33-3-3-3-----------------------3-|
E|--------------------------------------------------------------------3-|


[C/G] E    Eadd9      C*      Dadd4          C*
       Snowflakes are dancing,    discman is pumping 
E    Eadd9      C*     Dadd4+9               C*
 Headphones are loud,  chilling on a pillowy cloud 
E   Eadd9   C*      Dadd4               C*
 Comfort of codeine,    and Springsteen pristine 
E                 F               C/G   G      Dsus4  E Eadd9 C*(C) Dadd4 C*
You shoulda seen, just what I heard     Yeah - hey  - whoooooohoo - hooooohoo

E Eadd9   C* (C) Dadd4+9        C*
E Eadd9   C* (C) Dadd4 (Bend_1) C*
G6        C/G    Dsus2          C/G   [fade out]
            
Submit corrections

↑ Back to top | Tablatures and chords for acoustic guitar and electric guitar, ukulele, drums are parodies/interpretations of the original songs. You may use it for private study, scholarship, research or language learning purposes only