Home » K » Kurt Vile »

Kurt Vile - Goldtone Tabs

Artists:  A B C D E F G H I J K L M N O P Q R S T U V W X Y Z # 

Goldtone Tabs

(ver. 1) Click to play this song!
Kurt Vile
Capo 2
Intro and Verses
e|---------------------------------------------------------------------------|
B|-3-3-3-3-3-3--3-3-3-3-3-3--3-3-3-3-3-3--333--1-1-1-------------------------|
G|-0-4-0-4-0-0--0-4-0-4-0-0--0-4-0-4-0-0--000--2-0-2-------------------------|
D|-2-2-2-2-2-2--2-2-2-2-2-2--2-2-2-2-2-2--222--2-2-2-------------------------|
A|-3-3-3-3-3-3--3-3-3-3-3-3--3-3-3-3-3-3--333--------------------------------|
E|---------------------------------------------------------------------------|

Riff that he sometimes plays for the Am chord
e|----------0----------------------------|
B|------3/5------------------------------|
G|--2/4-------2/4------------------------|
D|---------------------------------------|
A|---------------------------------------|
E|---------------------------------------|

e|-------------------------------------------------------------------------------|
B|-3-3-3-3-3-3--3-3-3-3-3-3--3-3-3-3-3-3--333--1-------------------1-1-1-1-------|
G|-0-4-0-4-0-0--0-4-0-4-0-0--0-4-0-4-0-0--000--2-----------0-------0-2-0-2-------|
D|-2-2-2-2-2-2--2-2-2-2-2-2--2-2-2-2-2-2--222--2----2--0h2---------2-2-2-2-------|
A|-3-3-3-3-3-3--3-3-3-3-3-3--3-3-3-3-3-3--333----5--2--------5-5-5---------------|
E|-----------------------------------------------3--0--------3-3-3---------------|

For the "place in my heart" and "livin my life" verses
e|-----------------------------------------------2---------------------------|
B|-3-3-3-3-3-3--3-3-3-3-3-3--3-3-3-3-3-3--333--1-3-3-------------------------|
G|-0-4-0-4-0-0--0-4-0-4-0-0--0-4-0-4-0-0--000--2-2-0-------------------------|
D|-2-2-2-2-2-2--2-2-2-2-2-2--2-2-2-2-2-2--222--2---2-------------------------|
A|-3-3-3-3-3-3--3-3-3-3-3-3--3-3-3-3-3-3--333------3-------------------------|
E|---------------------------------------------------------------------------|


e|---------------------------3-2-0-2-2---------------------------------------|
B|-3-3-3-3-3-3--3-3-3-3-3-3--3-3-3-3-3----2---1-------------1------------1-1-|
G|-0-4-0-4-0-0--0-4-0-4-0-0--2-2-2-2-2----2---0------0--2-0-0------0-----0-0-|
D|-2-2-2-2-2-2--2-2-2-2-2-2---------------2---2--0h2--2-----2--0h2---2-0-2-2-|
A|-3-3-3-3-3-3--3-3-3-3-3-3-------------------3-------------3------------3-3-|
E|--------------------------------------------3-------------3------------3-3-|

e|---------------------------------------------------------------------------|
B|-------------1----1---------------------1-1-1-1----------------------------|
G|-----0---2-0-0----2------------0--------0-2-0-2----------------------------|
D|-0h2---2-----2----2-----2--0h2----------2-2-2-2----------------------------|
A|-------------3-------5--2--------5-5-5-------------------------------------|
E|-------------3-------3--0--------3-3-3-------------------------------------|

"yeah yeah" chorus and next verse
e|---------------------------------------------------------------------------|
B|-3-3-3-3-3-3--3-3-3-3-3-3--3-3-3-3-3-3--333--1-1-1-------------------------|
G|-0-4-0-4-0-0--0-4-0-4-0-0--0-4-0-4-0-0--000--2-0-2-------------------------|
D|-2-2-2-2-2-2--2-2-2-2-2-2--2-2-2-2-2-2--222--2-2-2-------------------------|
A|-3-3-3-3-3-3--3-3-3-3-3-3--3-3-3-3-3-3--333--------------------------------|
E|---------------------------------------------------------------------------|

e|---------------------------------------------------------------------------|
B|-3-3-3-3-3-3--3-3-3-3-3-3--3-3-3-3-3-3--333--1-------------------1-1-1-1---|
G|-0-4-0-4-0-0--0-4-0-4-0-0--0-4-0-4-0-0--000--2-----------0-------0-2-0-2---|
D|-2-2-2-2-2-2--2-2-2-2-2-2--2-2-2-2-2-2--222--2----2--0h2---------2-2-2-2---|
A|-3-3-3-3-3-3--3-3-3-3-3-3--3-3-3-3-3-3--333----5--2--------5-5-5-----------|
E|-----------------------------------------------3--0--------3-3-3-----------|

And this is where it started getting complicated to figure out but I think if you take
the rest of these chords and watch the video and listen to the song, everything should 
pretty much be there. 

e|--------------------------------------------3-0-0-0-0-0-0----|
B|-3-3-3-3-3-3--3-3-3-3-3-3--3-3-3-3-3-3-1-1--1-1-3-1-1-1-1----|
G|-0-4-0-4-0-0--0-4-0-4-0-0--0-4-0-4-0-0-2-2--2-2-2-2-2-2-2----|
D|-2-2-2-2-2-2--2-2-2-2-2-2--2-2-2-2-2-2-2-2--2-2-2-2-2-2-2----|
A|-3-3-3-3-3-3--3-3-3-3-3-3--3-3-3-3-3-3-----------------------|
E|-------------------------------------------------------------|

e|--3-2-0-2------------3-2-0-2---------------------------------|
B|--3-3-3-3--2--1-1-1--3-3-3-3---2-1-1-1-----------------------|
G|--2-2-2-2--2--0-0-0--2-2-2-2---2-0-0-0-----------------------|
D|-----------2--2-2-2------------2-2-2-2-----------------------|
A|--------------3-3-3--------------3-3-3-----------------------|
E|--------------3-3-3--------------3-3-3-----------------------|

e|-3-2-0-2-222-3-2-0-000--3-2-0-2-222-3-2-0-000----------------|
B|-3-3-3-3-333-3-3-1-111--3-3-3-3-333-3-3-1-111----------------|
G|-2-2-2-2-222-2-2-0-000--2-2-2-2-222-2-2-0-000----------------|
D|-----------------2-222------------------2-222----------------|
A|-----------------3-333------------------3-333----------------|
E|-------------------------------------------------------------|

e|--3-2-0-2-2---------------------------------------------------|
B|--3-3-3-3-3--2-2--3-3-3-3-3-3---------------------------------|
G|--2-2-2-2-2--2-2--0-4-0-4-0-0---------------------------------|
D|-------------2-2--2-2-2-2-2-2---------------------------------|
A|------------------3-3-3-3-3-3---------------------------------|
E|--------------------------------------------------------------|            
Submit corrections

↑ Back to top | Tablatures and chords for acoustic guitar and electric guitar, ukulele, drums are parodies/interpretations of the original songs. You may use it for private study, scholarship, research or language learning purposes only