» » »

Klaus Badelt - Hes A Pirate Tabs

Artists:  A B C D E F G H I J K L M N O P Q R S T U V W X Y Z # 

Hes A Pirate Tabs

(ver. 3) Click to play this song!
Klaus Badelt
 Rating:
4.2/5 (5 votes)

 Hes A Pirate lessons Tabs too difficult? Try these video lessons and learn fast
 
                
Hey, this is my first tab so go easy on me. I was checking out the other tabs for this 
and I found that they were all kind of one string classical style.
When I tabbed this I tried to make sure that I gave the piece more of a rocky twist to it.
So I suggest that you put distortion or reverb etc on.
I am pretty sure this is perfect although if you have any comments or suggestions please 

P.S. I am aware that most of the power chords have an A string root.
I could have spread the chords across the strings to minimise movement across the fret 
but for me personally I think it sounds better like this.


This is the intro:
Make sure you palm mute through out the intro.
If your having trouble playing it you can alternatively just play the A string.
E|--------------|--------------|----------------|
B|--------------|--------------|----------------|
G|-7-77-77-7777-|-7-77-77-7777-|-7-77-77-7777---|
D|-x-xx-xx-xxxx-|-x-xx-xx-xxxx-|-x-xx-xx-xxxx---|
A|-5-55-55-5555-|-5-55-55-5555-|-5-55-55-5555---|
E|--------------|--------------|----------------|
  Pm -------------------------------------------|
Main Theme:
I have roughly put in the values of each chord as you play it but that’s not really 
if you know the tune.
I do suggest you listen to the song before playing it so you can nail the rhythm.
A little bit of gentle palm muting to stop the chords ringing out to much is a good idea.

E|----------|------------|-------------------|
B|----------|------------|-------------------|
G|---5-7-7--|-7-9—10-10--|-10-12-9-9--7-5-7--|
D|-7-5-7-7--|-7-9-10-10--|-10-12—9-9--7-5-7--|
A|-7-3-5-5--|-5-7-8--8---|-8--10-7-7--5-3-5--|
E|-5--------|------------|-------------------|
   Q Q Q Q    Q Q Q Q      Q  Q  Q Q  S S S

E|----------|------------|-------------------|
B|----------|------------|-------------------|
G|---5-7-7--|-7-9—10-10--|-10-12-9-9--7-5-7--|
D|-7-5-7-7--|-7-9-10-10--|-10-12—9-9--7-5-7--|
A|-7-3-5-5--|-5-7-8--8---|-8--10-7-7--5-3-5--|
E|-5--------|------------|-------------------|
   Q Q Q Q    Q Q Q Q      Q  Q  Q Q  S S S

E|----------|------------|--------------|-------------|
B|----------|------------|--------------|-------------|
G|---5-7-7--|-7-9—12-12--|-12-14-15-15--|-14-12-14-9--|
D|-7-5-7-7--|-7-9-12—12--|-12-14-15-15--|-14-12-14-9--|
A|-7-3-5-5--|-5-7-10-10--|-10-12-13-13--|-12-10-12-7--|
E|-5--------|------------|--------------|-------------|
   Q Q Q Q    Q Q Q  Q     Q  Q  S  S     Q  Q  Q  Q

Then you can repeat that as many times as you wish.
I know there is a bit missing at the end, any comments with help on that bit would be 
appreciated.
Please rate and comment!!
Thanks recg71294.
            
Submit corrections


        Hes A Pirate lessons Hard to play? Try these video lessons and learn fast Hes A Pirate lessons
        
↑ Back to top | Tablatures and chords for acoustic guitar and electric guitar, ukulele, drums are parodies/interpretations of the original songs. You may use it for private study, scholarship, research or language learning purposes only