Home » K » Klaus Badelt »

Klaus Badelt - Hes A Pirate Bass

Artists:  A B C D E F G H I J K L M N O P Q R S T U V W X Y Z # 

Hes A Pirate Bass

(Version #1)
Klaus Badelt
-------------------------------------------------------------------------------
			     He's a Pirate - Klaus Badelt
-------------------------------------------------------------------------------


Tuning: standard

This song is great fun to play and this is a perfect tab if you know the correct timing.

G|---------------------------------------------------------------------|
D|---------------------------------------------------------------------|
A|---------------------------------------------------------------------|
E|-5--5-5--5-5--5-555--5--5-5--5-5--5-555--5--5-5--5-5--5-555--5~------|

G|---------------------------------------------------------------------|
D|---------------------7----------------------------------7------------|
A|-----5-5--5-7-8-8--8---7-7--5/3-3h5------5-5--5-7-8-8--8---7-7-5/3-5-|
E|-5-8---------------------------------5-8-----------------------------|

G|---------------------------------------------------------------------|
D|--------------5-5--5-7-8-8--7p5-7------------5--7--------------------|
A|-----5-5--5-8---------------------5--5-7-8-8-------5--5-8-7-7--5/3-5-|
E|-5-8-----------------------------------------------------------------|

G|---------------------------12-----------------------------------------------12----------------|
D|------12-12--1214-15-15--15---14-14--12/10-10h12-------12-12--1214-15-15--15---14-14-12/10-12-|
A|-1215---------------------------------------------1215----------------------------------------|
E|----------------------------------------------------------------------------------------------|


This is the first two sections of this song. Enjoy :)
            
Submit corrections

↑ Back to top | Tablatures and chords for acoustic guitar and electric guitar, ukulele, drums are parodies/interpretations of the original songs. You may use it for private study, scholarship, research or language learning purposes only