Home » K » Kjwan »

Kjwan - Sa Ilalim Tabs

Artists:  A B C D E F G H I J K L M N O P Q R S T U V W X Y Z # 

Sa Ilalim Tabs

(ver. 3) Click to play this song!
Kjwan
========================================================================


Standard Tuning:Drop D

INTRO
e|-----------------------------------|
B|-----------------------------------|
G|-----------------------------------|
D|---88888888888888888---44444444----|
A|---88888888888888888---44444444----|
D|---88888888888888888---44444444----|

e|------------------|
B|------------------|
G|------------------|
D|---333333---6666--|
A|---333333---6666--|
D|---333333---6666--|2x


VERSE 1:
nahigop...
e|---------------------------------------------|
B|---------------------------------------------|
G|---------------------------------------------|
D|-------6--------6--------------6--------6----|
A|-------6--------6--------------6--------6----|
D|-8-8-8-6--8-8-8-6--------8-8-8-6--8-8-8-6----|

						
e|-------------------------------------------------|
B|-------------------------------------------------|
G|-------------------------------------------------|
D|-------3--------3--------------3--------6--------|
A|-------3--------3--------------3--------6--------|
D|-4-4-4-3--4-4-4-3--------4-4-4-3--4-4-4-6--------|2x




CHORUS:
handa ka na ba..
e|-----------------------------------|
B|-----------------------------------|
G|-----------------------------------|
D|---88888888888888888---44444444----|
A|---88888888888888888---44444444----|
D|---88888888888888888---44444444----|

e|------------------|
B|------------------|
G|------------------|
D|---333333---6666--|
A|---333333---6666--|
D|---333333---6666--|2x


Lead 1:
e|------------------------------------------------------|
B|-----2-2-6-4/6b-------2-2-6-4/6b---6h9-6-6------------|
G|--3h5-5-5---------3h5-5-5---------------8-8-6-5-6-5b--|
D|------------------------------------------------------|
A|------------------------------------------------------|
E|------------------------------------------------------|

e|--------------------|
B|--------------------|
G|-3-3--5-6/8--6b-----|
D|--------------------|
A|--------------------|
E|--------------------|


VERSE 2:
Dumayo...
e|---------------------------------------------|
B|---------------------------------------------|
G|---------------------------------------------|
D|-------6--------6--------------6--------6----|
A|-------6--------6--------------6--------6----|
D|-8-8-8-6--8-8-8-6--------8-8-8-6--8-8-8-6----|

						
e|-------------------------------------------------|
B|-------------------------------------------------|
G|-------------------------------------------------|
D|-------3--------3--------------3--------6--------|
A|-------3--------3--------------3--------6--------|
D|-4-4-4-3--4-4-4-3--------4-4-4-3--4-4-4-6--------|2x



CHORUS:
handa ka na ba..
e|-----------------------------------|
B|-----------------------------------|
G|-----------------------------------|
D|---88888888888888888---44444444----|
A|---88888888888888888---44444444----|
D|---88888888888888888---44444444----|

e|------------------|
B|------------------|
G|------------------|
D|---333333---6666--|
A|---333333---6666--|
D|---333333---6666--|2x




Lead 2:
e|-----------------------------------------------|
B|-----------------------------------------------|
G|-----------------------------------------------|
D|-1h333333333333--6666666666666666--------------|
A|---------------------------------66666---------|
E|-----------------------------------------------|

e|-----------------------------------------------|
B|-----------------------------------------------|
G|-----------------------------------------------|
D|-1h333333333333--6666666666666666--------------|
A|---------------------------------66666---------|
E|-----------------------------------------------|


e|------------------------------------------------|
B|------------------------------------------------|
G|-666666666/5555555555/6666666666/555555555------|
D|-xxxxxxxxx/xxxxxxxxxx/xxxxxxxxxx/xxxxxxxxx------|
A|-444444444/3333333333/4444444444/333333333------|
E|------------------------------------------------|2x


VERSE 3:
nahigop...
e|---------------------------------------------|
B|---------------------------------------------|
G|---------------------------------------------|
D|-------6--------6--------------6--------6----|
A|-------6--------6--------------6--------6----|
D|-8-8-8-6--8-8-8-6--------8-8-8-6--8-8-8-6----|

						
e|-------------------------------------------------|
B|-------------------------------------------------|
G|-------------------------------------------------|
D|-------3--------3--------------3--------6--------|
A|-------3--------3--------------3--------6--------|
D|-4-4-4-3--4-4-4-3--------4-4-4-3--4-4-4-6--------|

nakita...
e|------------------------------------------------------------|
B|------------------------------------------------------------|
G|------------------------------------------------------------|
D|-------6--------6--------------6--------6---4---------------|
A|-------6--------6--------------6--------6---4(let it ring)--|
D|-8-8-8-6--8-8-8-6--------8-8-8-6--8-8-8-6---4---------------|


CHORUS:
handa ka na ba..
e|-----------------------------------|
B|-----------------------------------|
G|-----------------------------------|
D|---88888888888888888---44444444----|
A|---88888888888888888---44444444----|
D|---88888888888888888---44444444----|

e|------------------|
B|------------------|
G|------------------|
D|---333333---6666--|
A|---333333---6666--|
D|---333333---6666--|2x


Outro:
e|-----------------------------------------------|
B|-----------------------------------------------|
G|-----------------------------------------------|
D|-1h333333333333--6666666666666666--------------|
A|---------------------------------66666---------|
E|-----------------------------------------------|

e|-----------------------------------------------|
B|-----------------------------------------------|
G|-----------------------------------------------|
D|-1h333333333333--6666666666666666--------------|
A|---------------------------------66666---------|
E|-----------------------------------------------|


e|------------------------------------------------|
B|------------------------------------------------|
G|-666666666/5555555555/6666666666/555555555------|
D|-xxxxxxxxx/xxxxxxxxxx/xxxxxxxxxx/xxxxxxxxx------|
A|-444444444/3333333333/4444444444/333333333------|
E|------------------------------------------------|2x


e|------------------------------------------------------|
B|-----2-2-6-4/6b-------2-2-6-4/6b---6h9-6-6------------|
G|--3h5-5-5---------3h5-5-5---------------8-8-6-5-6-5b--|
D|------------------------------------------------------|
A|------------------------------------------------------|
E|------------------------------------------------------|

e|--------------------|
B|--------------------|
G|-3-3--5-6/8--6b-----|
D|--------------------|
A|--------------------|
E|--------------------|


Lyrics:
Verse 1:
Na higop sa ilalim
Binuksan ang mata
Na kita ang pag ibig
Na silaw sa ganda

Chorus: 2x
Handa ka na ba
Para ma kita
Ang mundo na iyong kinagisnaan

Verse 2:
Dumayo ang daluyo
Na ubos ang lakas
Sumama sa pag agos
Na lunod nap ala..ahhh.haaa..

Repeat chorus 2X
Verse 3:
Na higop sa ilalim
Binuksan ang mata
Na kita ang pag ibig
Na silaaaaaaaaaaaw

Repeat Chorus

End


this song i think its 97% sure granteed open 2 you guys!!
just want u guys 2 know dat keep rocking till it wont stop!!\m/
support our local bands.....and add me up in friendster
=========================================================================
            
Submit corrections

↑ Back to top | Tablatures and chords for acoustic guitar and electric guitar, ukulele, drums are parodies/interpretations of the original songs. You may use it for private study, scholarship, research or language learning purposes only