Home » K » Kjwan »

Kjwan - Sa Ilalim Tabs

Artists:  A B C D E F G H I J K L M N O P Q R S T U V W X Y Z # 

Sa Ilalim Tabs

(ver. 1) Click to play this song!
Kjwan
Sa Ilalim Tab by Kjwan


This song Sa Ilalim is from their new release album of kjwan, titled 2 step marv. It is 
nice song and a nice album and it really rock you on.. well its 90% accurate.. paki rate 

Legend:
b = bend
* = add a light vibrato
/ = slide

Intro: 2x
  Bb				Bb
e|-1-1-1-1-1-1-1-1---1-1-1-1-1-1-1-1--|
B|-1-1-1-1-1-1-1-1---1-1-1-1-1-1-1-1--|
G|-3-3-3-3-3-3-3-3---3-3-3-3-3-3-3-3--|
D|-3-3-3-3-3-3-3-3---3-3-3-3-3-3-3-3--|
A|-1-1-1-1-1-1-1-1---1-1-1-1-1-1-1-1--|
E|-x-x-x-x-x-x-x-x---x-x-x-x-x-x-x-x--|
  F#	             F		 G# or Ab
e|-2-2-2-2-2-2-2-2---1-1-1-1-1---4-4--|
B|-2-2-2-2-2-2-2-2---1-1-1-1-1---4-4--|
G|-2-2-2-2-2-2-2-2---1-1-1-1-1---4-4--|
D|-4-4-4-4-4-4-4-4---3-3-3-3-3---6-6--|
A|-4-4-4-4-4-4-4-4---3-3-3-3-3---6-6--|
E|-2-2-2-2-2-2-2-2---1-1-1-1-1---4-4--|

Verse 1: 2x
Na higop. . .
	     A#  G# A#  G# A#  G# A#  G#
	  e|-6-6-4--6-6-4--6-6-4--6-6-4--|
	  B|-6-6-4--6-6-4--6-6-4--6-6-4--|
	  G|-6-6-4--6-6-4--6-6-4--6-6-4--|
	  D|-8-8-6--8-8-6--8-8-6--8-8-6--|
	  A|-8-8-6--8-8-6--8-8-6--8-8-6--|
	  E|-6-6-4--6-6-4--6-6-4--6-6-4--|
              b      b      b      b
   F#  F  F#  F  F#  F  F#  G#
e|-2-2-1--2-2-1--2-2-1--2-2-4--|
B|-2-2-1--2-2-1--2-2-1--2-2-4--|
G|-2-2-1--2-2-1--2-2-1--2-2-4--|
D|-4-4-3--4-4-3--4-4-3--4-4-6--|
A|-4-4-3--4-4-3--4-4-3--4-4-6--|
E|-2-2-1--2-2-1--2-2-1--2-2-4--|
       b      b      b      *

Chorus:
 Same as intro 2x
 After singing the chorus lyrics do
 Lead 1:
e|-----------------------------------------------|
B|-----3-3-4-4/6-------3-3-4-4/6---5h7-5-5-5-3---|
G|--3h5-5-5---------3h5-5-5-------------7-7---5--|
D|-----------------------------------------------|
A|-----------------------------------------------|
E|-----------------------------------------------|

e|-------------------|
B|-------------------|
G|-3-3-3--5-6-7--5---|
D|-------------------|
A|-------------------|
E|-------------------|

Note: while doing the lead 1 the rhythm is verse 1

Verse 2:
Same as Verse 1

Chorus 2:
The lead while singing the chorus 2, just listen to find out where to enter..and to know 
many times to repeat it..this lead part while singing the chorus is just 70-80% acc.
e|------------------------|
B|-----2------2-----------|
G|--------2------2--------|
D|---4-------4-----1h3----|
A|--4----4--4---4--1h3----|
E|-2----------------------|
	            *
Same as intro 2x
After singing the chorus lyrics do
 Lead 2:
e|-----------------------------------------------|
B|-----------------------------------------------|
G|-----------------------------------------------|
D|-1h3-3-3-3-3--6-6-6-6-6-8-8-8-8-8-6-6-6-6-6----|
A|-----------------------------------------------|
E|-----------------------------------------------|

e|-----------------------------------------------|
B|-----------------------------------------------|
G|-----------------------------------------------|
D|-1h3-3-3-3-3--6-6-6-6-6-8-8-8-8-8-6-6-6-6-6-0--|
A|-----------------------------------------------|
E|-----------------------------------------------|

e|----------------------------------------------------------|
B|----------------------------------------------------------|
G|----------------------------------------------------------|
D|-1-0-0-0-0-0-0-0---------------1-0-0-0-0-0----------------|
A|-----------------3-3-3-3-3-3-3-------------3-3-3-3-3-3-3--|
E|----------------------------------------------------------|

Verse 3: 2x
e|-6-6-4--6-6-4--6-6-4--6-6-4--|
B|-6-6-4--6-6-4--6-6-4--6-6-4--|
G|-6-6-4--6-6-4--6-6-4--6-6-4--|
D|-8-8-6--8-8-6--8-8-6--8-8-6--|
A|-8-8-6--8-8-6--8-8-6--8-8-6--|
E|-6-6-4--6-6-4--6-6-4--6-6-4--|
       b      b      b      b

e|-2-2-1--2-2-1--2-2-1--2-2-4--|
B|-2-2-1--2-2-1--2-2-1--2-2-4--|
G|-2-2-1--2-2-1--2-2-1--2-2-4--|
D|-4-4-3--4-4-3--4-4-3--4-4-6--|
A|-4-4-3--4-4-3--4-4-3--4-4-6--|
E|-2-2-1--2-2-1--2-2-1--2-2-4--|
       b      b      b      *

e|-6-6-4--6-6-4--6-6-4--6-6-4--|
B|-6-6-4--6-6-4--6-6-4--6-6-4--|
G|-6-6-4--6-6-4--6-6-4--6-6-4--|
D|-8-8-6--8-8-6--8-8-6--8-8-6--|
A|-8-8-6--8-8-6--8-8-6--8-8-6--|
E|-6-6-4--6-6-4--6-6-4--6-6-4--|
       b      b      b      b

e|-2-
B|-2-
G|-2-
D|-4-(let it ring and bend it)
A|-4-
E|-2-

Chorus 3:
The lead while singing the chorus 3, just listen to find out where to enter..and to know 
many times to repeat it..this lead part while singing the chorus is just 70-80% acc.
e|------------------------|
B|-----2------2-----------|
G|--------2------2--------|
D|---4-------4-----1h3----|
A|--4----4--4---4--1h3----|
E|-2----------------------|
		    *
Same as intro 2x
After singing the chorus lyrics do
This time it’s a combination of lead 2 and lead 1
First do lead 2 with a rhythm of chorus
After lead 2
Do lead 1 with rhythm of verse.
Then after the lead 2
The music ends...


Lyrics:
Verse 1:
Na higop sa ilalim
Binuksan ang mata
Na kita ang pag ibig
Na silaw sa ganda

Chorus: 2x
Handa ka na ba
Para ma kita
Ang mundo na iyong kinagisnaan

Verse 2:
Dumayo ang daluyo
Na ubos ang lakas
Sumama sa pag agos
Na lunod nap ala..ahhh.haaa..

Repeat chorus 2X
Verse 3:
Na higop sa ilalim
Binuksan ang mata
Na kita ang pag ibig
Na silaaaaaaaaaaaw

Repeat Chorus

End

That’s all..im not that sure about the lyrics..=)..but im sure about the tabs..just want 
in
Thnx guys 4 ur time..pls rate..thnx..!!=)

Hello to my baby cindy..love you always and 4ever..=)
Ingat ka always..=)..muuuaaaah..

Hello to my band shakewell

sha>|ewe||
ian bernard (lead, rhythm, vocals) me
jade mark (rhythm, 2nd voice)
james (bass)
jon alec(drums)

Love ya guys..luv ya ol..
Ty ty ty ty ty…
            
Submit corrections

↑ Back to top | Tablatures and chords for acoustic guitar and electric guitar, ukulele, drums are parodies/interpretations of the original songs. You may use it for private study, scholarship, research or language learning purposes only