Home » K » Kjwan »

Kjwan - One Look Bass

Artists:  A B C D E F G H I J K L M N O P Q R S T U V W X Y Z # 

One Look Bass

(ver. 1) Click to play this song!
Kjwan
One Look Bass Tab by Kjwan
Review by: Ian Bernard Gilay

This song One Look is from their new release album of kjwan, titled 2 step marv. It is a 
song and a nice album and it really rock you on.. well its 90% accurate.. paki rate lng 

Intro:
G|-----------------------------------------|
D|-----------------------------------------|
A|----5-5-7-9-7-5-7-5-3--9-9-9-7-5-3-5-7-5-|
E|-5h7-7-----------------------------------|

G|--------------------------------------|
D|--------------------------------------|
A|----5-5-7-9-7-5-7-5-3--9-9-9-7-5-3-5b-|
E|-5h7-7--------------------------------|

Verse 1:
G|--------------------------------------------------------------------|
D|--------------------------------------------------------------------|
A|--------------------------------------------------------------------|
E|-4--4-4-4---2--2-2-2---4--4-4-4---2--2-2-2-4/2--4--4-4-4---2--2-2-2-|

G|---------------------|
D|---------------------|
A|---------------------|
E|-4--4-4-4---2--2-2-2-|

Refrain:
G|-----------------------------------|
D|-----------------------------------|
A|-----------------------------------|
E|-4--4-4---2--2-2---4-3-2-5-4-5-2-5-|

Chorus:
G|------------------------------|
D|------------------------------|
A|------------------------------|
E|-4--4-4-4-4-4----2--2-2-2-2-2-|

G|------------------------------|
D|------------------------------|
A|------------------------------|
E|-4--4-4-4-4-4----2--2-2-2-2-2-|

Repeat Intro:
G|-----------------------------------------|
D|-----------------------------------------|
A|----5-5-7-9-7-5-7-5-3--9-9-9-7-5-3-5-7-5-|
E|-5h7-7-----------------------------------|

G|--------------------------------------|
D|--------------------------------------|
A|----5-5-7-9-7-5-7-5-3--9-9-9-7-5-3-5b-|
E|-5h7-7--------------------------------|

Verse 2:
G|--------------------------------------------------------------------|
D|--------------------------------------------------------------------|
A|--------------------------------------------------------------------|
E|-4--4-4-4---2--2-2-2---4--4-4-4---2--2-2-2-4/2--4--4-4-4---2--2-2-2-|

G|---------------------|
D|---------------------|
A|---------------------|
E|-4--4-4-4---2--2-2-2-|

Repeat Refrain:
G|-----------------------------------|
D|-----------------------------------|
A|-----------------------------------|
E|-4--4-4---2--2-2---4-3-2-5-4-5-2-5-|

Repeat Chorus:
G|------------------------------|
D|------------------------------|
A|------------------------------|
E|-4--4-4-4-4-4----2--2-2-2-2-2-|

G|------------------------------|
D|------------------------------|
A|------------------------------|
E|-4--4-4-4-4-4----2--2-2-2-2-2-|

Bridge:
G|-----------------|
D|-----------------|
A|-----------------|
E|-4-3-2-5-4-2-5-2-|

G|-----------------|
D|-----------------|
A|-----------------|
E|-4-3-2-5-4-2-5-2-|

G|-----------------|
D|-----------------|
A|-----------------|
E|-4-3-2-5-4-2-5-2-|

G|----------------------|
D|----------------------|
A|----------------------|
E|-4-3-2-5-2--2-2-2-2-2-|

Repeat Refrain and Chorus:
(no bass and guitar, drums and vocals only)

Chorus 2:
G|--------------------|
D|--------------------|
A|--------------------|
E|-4--2--4--2-2-2-2-2-|

Repeat Refrain
Repeat Chorus
Repeat Intro

Then end..

That’s all..im not that sure about the lyrics..=)..but im sure about the tabs..just want 
in
Thnx guys 4 ur time..pls rate..thnx..!!=)

Hello to my band shakewell

sha>|ewe||
ian bernard (lead, rhythm, vocals)
jade mark (rhythm, 2nd voice)
james (bass)
jon alec(drums)

Love ya guys..luv ya ol..
Ty ty ty ty ty…
            
Submit corrections

↑ Back to top | Tablatures and chords for acoustic guitar and electric guitar, ukulele, drums are parodies/interpretations of the original songs. You may use it for private study, scholarship, research or language learning purposes only