» » »

Kittie - Suck Tabs

Artists:  A B C D E F G H I J K L M N O P Q R S T U V W X Y Z # 

Suck Tabs

(ver. 3) Click to play this song!
Kittie
 Rating:
4/5 (4 votes)

 Suck lessons Tabs too difficult? Try these video lessons and learn fast
 
                Tuning: Drop C (C, G, C, F, A, D)
 
Intro-Dist. 
d|-------------------------|              |-----------------------| 
A|-------------------------|              |-----------------------| 
F|-------------------------|              |-----------------------| 
C|-0-6-0-7-8-0-6-0-6-0-7-8-| 3 times then |-0-6-0-7-8-0-6-0-6-7-8-| 3 times 
G|-0-6-0-7-8-0-6-0-6-0-7-8-|              |-0-6-0-7-8-0-6-0-6-7-8-| 
C|-0-6-0-7-8-0-6-0-6-0-7-8-|              |-0-6-0-7-8-0-6-0-6-7-8-| 
   - - - - - - - - - - - -
 
Verse                          Pre-Chorus 
d|-------------|              |--------------------------------------------| 
A|-------------|              |--------------------------------------------| 
F|-9--------12-|              |--------------------------------------------| 
C|-------------| 9 times then |-0-2-0-2-0-2-------------0-2-0-2-0-3--------| 
G|-7--------10-|              |-0-2-0-2-0-2-------------0-2-0-2-0-3--------| 
C|-------------|              |-0-2-0-2-0-2--0000-0000--0-2-0-2-0-3--------| 
                                             ---- ----   
Chorus "...believe me when i say..." 
d|-----------------------------|
A|-----------------------------|
F|-----------------------------|
C|-0-6-0-7-8-0-6-0-6-0-7-8-8-8-| 6 times
G|-0-6-0-7-8-0-6-0-6-0-7-8-8-8-|
C|-0-6-0-7-8-0-6-0-6-0-7-8-8-8-|
 
 Breakdown  
d|--------|
A|--------|
F|--------| 
C|-9~-----|
G|--------|
C|-7~-----|
 
Outro "...*** You..." 
d|---------------------|              |-----------| 
A|---------------------|              |-----------| 
F|---------------------|              |-----------| 
C|-0-0-0-6-0-0-0-0-8-7-| 9 times then |-7~-(7)*---| let ring
G|-0-0-0-6-0-0-0-0-6-5-|              |-5~-(5)----| 
C|-0-0-0-6-0-0-0-0-----|              |-----------|
            
Submit corrections


        Suck lessons Hard to play? Try these video lessons and learn fast Suck lessons
        
↑ Back to top | Tablatures and chords for acoustic guitar and electric guitar, ukulele, drums are parodies/interpretations of the original songs. You may use it for private study, scholarship, research or language learning purposes only