» » »

Kittie - Spit Tabs

Artists:  A B C D E F G H I J K L M N O P Q R S T U V W X Y Z # 

Spit Tabs

(ver. 2) Click to play this song!
Kittie
 Rating:
4/5 (4 votes)

 Spit lessons Tabs too difficult? Try these video lessons and learn fast
 
                Kittie
“spit”

tuning: C G C F A D

PM= palm mute
X = muted string

riff 1
part 1:
D|-----------------|
A|-----------------|
F|-----------------|
C|-----------------|
G|-----------------|
C|-2-1-0-1-0-1-2-0-|

part 2:
D|----------------|
A|----------------|
F|----------------|
C|----------------|
G|-0----0----0----|
C|-0----0----0----|
  |______PM______|

riff 2:
D|-----------------|
A|-----------------|
F|-----------------|
C|-----------------|
G|-2-1-0-1-0-1-2-0-|
C|-2-1-0-1-0-1-2-0-|

riff 3:
D|-----------------------------------|
A|-----------------------------------|
F|-----------------------------------|
C|--------2------------2------1------|
G|-2-2--2-2---2-2--2-2-2---0--1------|
C|-2-2--2-2---2-2--2-2-2---0--1------|
  |__PM__|   |___PM___|

riff 4
part 1:
D|-----------------|
A|-----------------|
F|-----------------|
C|-----------------|
G|-----------------|
C|-2-1-0-1-0-1-2-0-|

part 2:
D|------|
A|------|
F|------|
C|------|
G|-0-0--|
C|-0-0--|
  |_PM_|

riff 5:
D|--------------------------------------------|
A|--------------------------------------------|
F|-11--11---11--11---11--11---11--11----------|
C|--x---x----x---x----x---x----x---x----------|
G|--9---9----9---9----9---9----9---9----0-0---|
C|--------------------------------------0-0---|
                                       |_PM_|


riff 6
part 1:
D|--------------------------|
A|--------------------------|
F|--------------------------|
C|--------------------------|
G|-0-1--0--1--0--1--0-3-3-3-|
C|-0-1--0--1--0—-1--0-3-3-3-|
  |___________PM___________|

part 2:
D|--------------------|
A|--------------------|
F|------------11------|
C|-------------x------|
G|-0-1--0--1---9------|
C|-0-1--0--1----------|
  |____PM____|

riff 7:
D|--------------------------|
A|--------------------------|
F|--------------------------|
C|--------------------------|
G|-0-1--0--1--0--1--0-3-3-3-|
C|-0-1--0--1--0--1--0-3-3-3-|

outro:
D|-----------------------------|
A|-----------------------------|
F|-----------------------------|
C|-----------------------------|
G|-0-2-1-0-1-2-0-2-0-2-1-0-1-2-|
C|-0-2-1-0-1-2-0-2-0-2-1-0-1-2-|
            
Submit corrections


        Spit lessons Hard to play? Try these video lessons and learn fast Spit lessons
        
↑ Back to top | Tablatures and chords for acoustic guitar and electric guitar, ukulele, drums are parodies/interpretations of the original songs. You may use it for private study, scholarship, research or language learning purposes only