» » »

Kittie - Safe Tabs

Artists:  A B C D E F G H I J K L M N O P Q R S T U V W X Y Z # 

Safe Tabs

(ver. 1) Click to play this song!
Kittie
 Rating:
4/5 (4 votes)

 Safe lessons Tabs too difficult? Try these video lessons and learn fast
 
                This is a great song, probably the best off Oracle. I haven't seen it tabbed anywhere else
so I decided it was about time I did something about it. I didn't tab the piano parts, but all 
the guitar parts are here. The song is in drop C tuning (C, G, C, F, A, D).

D|---------------------------------------|
A|---------------------------------------|
F|---------------------------------------|
C|---------------------------------------|
G|--5-6--6-5-13-15p12--------------------|
C|---------------------------------------|
This is the guitar part you hear after the "golden bird...flys free" part.

OUTRO
D|----------------------------------------------------|
A|----------------------------------------------------|
F|----------------------------------------------------|
C|-1-1-1-1-1-1-1-1-0-0-0-0-0-0-0-0-8-8-8-8-8-8-10-8-7-|
G|-1-1-1-1-1-1-1-1-0-0-0-0-0-0-0-0-8-8-8-8-8-8-10-8-7-|
C|-1-1-1-1-1-1-1-1-0-0-0-0-0-0-0-0-8-8-8-8-8-8-10-8-7-|
"Saaaaaaave meeeeeeeeeee" part. Play this four times, then play this:

D|---------------------------------|
A|---------------------------------|
F|---------------------------------|
C|-1-1-1-1-0-0-0-0-8-8-8-8-7-7-7-7-|
G|-1-1-1-1-0-0-0-0-8-8-8-8-7-7-7-7-|
C|-1-1-1-1-0-0-0-0-8-8-8-8-7-7-7-7-|
Play that until the song ends.	

- Kelli
            
Submit corrections


        Safe lessons Hard to play? Try these video lessons and learn fast Safe lessons
        
↑ Back to top | Tablatures and chords for acoustic guitar and electric guitar, ukulele, drums are parodies/interpretations of the original songs. You may use it for private study, scholarship, research or language learning purposes only