» » »

Kittie - Pink Lemonade Tabs

Artists:  A B C D E F G H I J K L M N O P Q R S T U V W X Y Z # 

Pink Lemonade Tabs

(ver. 2) Click to play this song!
Kittie
 Rating:
4/5 (4 votes)

 Pink Lemonade lessons Tabs too difficult? Try these video lessons and learn fast
 
                Kittie
"Pink Lemonade"
Oracle
100% CORRECT
Tuning: Drop C [low to high: C G C F A D]

~    = let ring out (don't stop the note right away)
\    = slide down
pm.. = palm mute

** TABBED FOR GUITAR. I DON'T KNOW WHY THEY PUT THIS IN THE BASS SECTION. THIS IS 100%  CORRECT!!!!!!!!!!!! ***

intro:

D----------------------------------------------------------
A----------------------------------------------------------
F----------------------------------------------------------
C--0-------- 0------- 0------------------------------------ [x1]
G--0---------0--------0------------------------------------
C--0---------0--------0------------------------------------
pm.........................................................



lead-in & verse:
D----------------------------------------------------------------------
A----------------------------------------------------------------------
F----------------------------------------------------------------------
C--4\1~~~~~~-----------4\0~~~~~~~---------4\1~~~~~~--------4\0~~~~~~~-- [x.. A LOT!]
G--4\1~~~~~~-----------4\0~~~~~~~---------4\1~~~~~~--------4\0~~~~~~~--
C--4\1~~~~~~-----------4\0~~~~~~~---------4\1~~~~~~--------4\0~~~~~~~--



chorus:
D------------------------------------------------------------------------------
A------------------------------------------------------------------------------
F------------------------------------------------------------------------------
C--5-5-5---5-6-3-0----5-5-5---5-6-3-0----5-5-5---5-6-3-0----5-6-4\1~~~~~~~----- [x1]
G--5-5-5---5-6-3-0----5-5-5---5-6-3-0----5-5-5---5-6-3-0----5-6-4\1~~~~~~~-----
C--5-5-5---5-6-3-0----5-5-5---5-6-3-0----5-5-5---5-6-3-0----5-6-4\1~~~~~~~-----




lead-in & verse:
D----------------------------------------------------------------------
A----------------------------------------------------------------------
F----------------------------------------------------------------------
C--4\1~~~~~~-----------4\0~~~~~~~---------4\1~~~~~~--------4\0~~~~~~~-- [x.. A LOT!]
G--4\1~~~~~~-----------4\0~~~~~~~---------4\1~~~~~~--------4\0~~~~~~~--
C--4\1~~~~~~-----------4\0~~~~~~~---------4\1~~~~~~--------4\0~~~~~~~--


interlude:

listen to the song to get the rhythm of the beat/riff


D----------------------------------------------------------------
A----------------------------------------------------------------
F----------------------------------------------------------------
C----------------------------------------------------------------
G----------------------------------------------------------------
C--1-1-1-1-1-1-1-1-1-1-1-1-1-1-1-1-1-1-1-1-1-1-1-1-1-1-1-1-1-1-1-1

D------------------------------------------------------------------
A------------------------------------------------------------------
F------------------------------------------------------------------
C------------------------------------------------------------------
G------------------------------------------------------------------
C-3-3-3-3-3-3-3-----0-0-0-0-0-0-0-0-0-0-0-0-0-0-0-0-0-0-0-0-0-0-0--


outro:

D-------------------------------------------
A-------------------------------------------
F-------------------------------------------
C-----4\1~~~~~~-----------4\0~~~~~~~--------
G-----4\1~~~~~~-----------4\0~~~~~~~--------
C-----4\1~~~~~~-----------4\0~~~~~~~--------
            
Submit corrections


        Pink Lemonade lessons Hard to play? Try these video lessons and learn fast Pink Lemonade lessons
        
↑ Back to top | Tablatures and chords for acoustic guitar and electric guitar, ukulele, drums are parodies/interpretations of the original songs. You may use it for private study, scholarship, research or language learning purposes only