» » »

Kittie - Never Again Tabs

Artists:  A B C D E F G H I J K L M N O P Q R S T U V W X Y Z # 

Never Again Tabs

(ver. 2) Click to play this song!
Kittie
 Rating:
3.2/5 (22 votes)

 Never Again lessons Tabs too difficult? Try these video lessons and learn fast
 
                Intro
D|---------|  |-------------------------|-|-------------------------|   
A|---------|  |-------------------------|-|-------------------------|
F|---------|  |-------------------------|x|-------------------------|
C|--1~--3~-|  |---000-000-000-----------|3|--000-000-000---333-666--|
G|--1~--3~-|  |---000-000-000--5-3-5----|-|--000-000-000---333-666--|
C|--1~--3~-|  |5p-000-000-000-----------|-|--000-000-000---333-666--|
                  ... ... ...                ... ... ...

D|----------------------|-|-----------|
A|----------------------|-|-----------|
F|----------------------|x|-----------|
C|--000-000-000---------|3|--3~--6~---|
G|--000-000-000--5-3-5--|-|--3~--6~---|
C|--000-000-000---------|-|--3~--6~---|



Verse
D|-------------------------------------------------------------------|-|
A|-------------------------------------------------------------------|-|
F|-------------------------------------------------------------------|x|
C|-000000-000-000-000000-000-000-333333-333-333-222222-222---3p2-----|2|
G|-000000-000-000-000000-000-000-333333-333-333-222222-222-------3---|-|
C|-000000-000-000-000000-000-000-333333-333-333-222222-222-----------|-|
PM ...... ... ... ...... ... ... ...... ... ... ...... ...



Pre-Chorus
D|---------------------|-|----------------------------------------|\
A|---------------------|-|----------------------------------------| \  Repeat 
F|---------------------|x|----------------------------------------|  \   2
C|-000000--------------|2|-333333-------------222222--------------|  /  X's
G|-000000------------3-|-|-333333--3---6--5---222222--5-8-7-3-6-5-| /
C|-000000--5p3p0-3h5---|-|-333333----3---3----222222--------------|/
PM ......                  ......    .   .    ......


Chorus
D|---------|  ||-------------------------|-|-------------------------|\   
A|---------|  ||-------------------------|-|-------------------------| \  Repeat 
F|---------|  ||-------------------------|x|-------------------------|  \   3
C|--1~--3~-|  ||---000-000-000-----------|3|--000-000-000---333-666--|  /  X's
G|--1~--3~-|  ||---000-000-000--5-3-5----|-|--000-000-000---333-666--| /
C|--1~--3~-|  ||5p-000-000-000-----------|-|--000-000-000---333-666--|/
                   ... ... ...                ... ... ...

D|----------------------|-|-----------| 
A|----------------------|-|-----------|
F|----------------------|x|-----------|
C|--000-000-000---------|3|--3~--6~---|
G|--000-000-000--5-3-5--|-|--3~--6~---|
C|--000-000-000---------|-|--3~--6~---|
    ... ... ...

Verse
D|-------------------------------------------------------------------|-|
A|-------------------------------------------------------------------|-|
F|-------------------------------------------------------------------|x|
C|-000000-000-000-000000-000-000-333333-333-333-222222-222---3p2-----|2|
G|-000000-000-000-000000-000-000-333333-333-333-222222-222-------3---|-|
C|-000000-000-000-000000-000-000-333333-333-333-222222-222-----------|-|
PM ...... ... ... ...... ... ... ...... ... ... ...... ...



Pre-Chorus
D|---------------------|-|----------------------------------------|\
A|---------------------|-|----------------------------------------| \  Repeat 
F|---------------------|x|----------------------------------------|  \   2
C|-000000--------------|2|-333333-------------222222--------------|  /  X's
G|-000000------------3-|-|-333333--3---6--5---222222--5-8-7-3-6-5-| /
C|-000000--5p3p0-3h5---|-|-333333----3---3----222222--------------|/
PM ......                  ......    .   .    ......



Chorus
D|---------|  ||-------------------------|-|-------------------------|\   
A|---------|  ||-------------------------|-|-------------------------| \  Repeat 
F|---------|  ||-------------------------|x|-------------------------|  \   3
C|--1~--3~-|  ||---000-000-000-----------|3|--000-000-000---333-666--|  /  X's
G|--1~--3~-|  ||---000-000-000--5-3-5----|-|--000-000-000---333-666--| /
C|--1~--3~-|  ||5p-000-000-000-----------|-|--000-000-000---333-666--|/
                   ... ... ...                ... ... ...

D|----------------------|-|-----------| 
A|----------------------|-|-----------|
F|----------------------|x|-----------|
C|--000-000-000---------|3|--3~--6~---|
G|--000-000-000--5-3-5--|-|--3~--6~---|
C|--000-000-000---------|-|--3~--6~---|
    ... ... ...

Pre-Breakdown (During Tara's solo)
D|----------------------|-|------------|\ 
A|----------------------|-|------------| \  Repeat
F|----------------------|x|------------|  \   2
C|--000-000-000---------|3|--333--666--|  /  X's
G|--000-000-000--5-3-5--|-|--333--666--| /
C|--000-000-000---------|-|--333--666--|/
    ... ... ...

Breakdown
D|------------------------------------------------|-|
A|------------------------------------------------|-|
F|------------------------------------------------|x|
C|-0---------------------0------------------------|2|
G|-0---------3h5--3-6-5--0---------3h5-3--5--3----|-|
C|-0--0--3h5-------------0--0--3h5--------5--3----|-|

D|------------------|-|-----------------------|
A|------------------|-|-----------------------|
F|------------------|x|-----------------------|
C|-000000--000-000--|3|--000000---333-666-----|
G|-000000--000-000--|-|--000000---333-666-----|
C|-000000--000-000--|-|--000000---333-666-----|
PM ......  ... ...       ......


Chorus/Outro
D|----------------------|-|-------------------------|\   
A|----------------------|-|-------------------------| \  Repeat 
F|----------------------|x|-------------------------|  \   3
C|000-000-000-----------|3|--000-000-000---333-666--|  /  X's
G|000-000-000--5-3-5----|-|--000-000-000---333-666--| /
C|000-000-000-----------|-|--000-000-000---333-666--|/
  ... ... ...                ... ... ...

D|----------------------|-|------------| 
A|----------------------|-|------------|
F|----------------------|x|------------|
C|--000-000-000---------|3|--3~--6~--0-|
G|--000-000-000--5-3-5--|-|--3~--6~--0-|
C|--000-000-000---------|-|--3~--6~--0-|
    ... ... ...            
Submit corrections


        Never Again lessons Hard to play? Try these video lessons and learn fast Never Again lessons
        
↑ Back to top | Tablatures and chords for acoustic guitar and electric guitar, ukulele, drums are parodies/interpretations of the original songs. You may use it for private study, scholarship, research or language learning purposes only