» » »

Kittie - Breathe Tabs

Artists:  A B C D E F G H I J K L M N O P Q R S T U V W X Y Z # 

Breathe Tabs

(ver. 2) Click to play this song!
Kittie
 Rating:
4.3/5 (21 vote)

 Breathe lessons Tabs too difficult? Try these video lessons and learn fast
 
                Tuning:CGCFAD


INTRO
D|-------------------------------------------------------------------------|
A|-------------------------------------------------------------------------|
F|-------------------------------------------------------------------------|
C|-0-0--0000--000--000--5/8-8\7--0-0--0000--000--000--333-666-555----------|
G|-0-0--0000--000--000--3/6-6\5--0-0--0000--000--000--333-666-555----------|
C|-0-0--0000--000--000-----------0-0--0000--000--000--333-666-555----------|
        ....  ...  ...                ....  ...  ...  ... ... ...

D|--------------------------------------------------|
A|--------------------------------------------------|
F|--------------------------------------------------|
C|-0-0--0000--000--000--5/8-8\7--0-0--0000--000--0--|
G|-0-0--0000--000--000--3/6-6\5--0-0--0000--000--0--|
C|-0-0--0000--000--000-----------0-0--0000--000--0--|
        ....  ...  ...                ....  ...  


VERSE
D|-------------------------------------------------------------------------|
A|-------------------------------------------------------------------------|
F|-------------------------------------------------------------------------|
C|-0-0--0000--000--000--5/8-8\7--0-0--0000--000--000--333-666-555----------|
G|-0-0--0000--000--000--3/6-6\5--0-0--0000--000--000--333-666-555----------|
C|-0-0--0000--000--000-----------0-0--0000--000--000--333-666-555----------|
        ....  ...  ...                ....  ...  ...  ... ... ...


D|-----------------------------------------------------------|
A|-----------------------------------------------------------|   Repeat
F|-----------------------------------------------------------|     2
C|-0-0--0000--000--000--5/8-8\7--0-0--0000--000--000--3-6-5--|    X's
G|-0-0--0000--000--000--3/6-6\5--0-0--0000--000--000--3-6-5--|
C|-0-0--0000--000--000-----------0-0--0000--000--000--3-6-5--|
        ....  ...  ...                ....  ...  ...



PRE-CHORUS
D|------------------------|-|----------------------------------------|
A|------------------------|-|----------------------------------------|
F|------------------------|x|----------------------------------------|
C|--000-000---------------|2|-333-333------------222-222-------------|
G|--000-000---5p0-8p7-----|-|-333-333-8p0-10p8---222-222---7p0-8p7---|
C|--000-000---------------|-|-333-333------------222-222-------------|
    ... ...                   ... ...            ... ...

D|------------------------|-|----------------------------------------|
A|------------------------|-|----------------------------------------|
F|------------------------|x|----------------------------------------|
C|--000-000---------------|2|-333-333------------222-222---2h3p2-----|
G|--000-000---5p0-8p7-----|-|-333-333-8p0-10p8---222-222-------------|
C|--000-000---------------|-|-333-333------------222-222-------------|
    ... ...                   ... ...            ... ...


CHORUS
D|-----------------------------------------|-|
A|-----------------------------------------|-|
F|-------------------5-55555---------------|x|
C|--0-00000000000000-5-55555--6-66666------|4|
G|--0-00000000000000-3-33333--6-66666------|-|
C|--0-00000000000000----------6-66666------|-|


VERSE
D|-------------------------------------------------------------------------|
A|-------------------------------------------------------------------------|
F|-------------------------------------------------------------------------|
C|-0-0--0000--000--000--5/8-8\7--0-0--0000--000--000--333-666-555----------|
G|-0-0--0000--000--000--3/6-6\5--0-0--0000--000--000--333-666-555----------|
C|-0-0--0000--000--000-----------0-0--0000--000--000--333-666-555----------|
        ....  ...  ...                ....  ...  ...  ... ... ...


D|-----------------------------------------------------------|
A|-----------------------------------------------------------|   Repeat
F|-----------------------------------------------------------|     2
C|-0-0--0000--000--000--5/8-8\7--0-0--0000--000--000--3-6-5--|    X's
G|-0-0--0000--000--000--3/6-6\5--0-0--0000--000--000--3-6-5--|
C|-0-0--0000--000--000-----------0-0--0000--000--000--3-6-5--|
        ....  ...  ...                ....  ...  ...



PRE-CHORUS
D|------------------------|-|----------------------------------------|-|
A|------------------------|-|----------------------------------------|-|
F|------------------------|x|----------------------------------------|x|
C|--000-000---------------|2|-333-333------------222-222-------------|3|
G|--000-000---5p0-8p7-----|-|-333-333-8p0-10p8---222-222---7p0-8p7---|-|
C|--000-000---------------|-|-333-333------------222-222-------------|-|
    ... ...                   ... ...            ... ...

D|------------------------|-|----------------------------------------|
A|------------------------|-|----------------------------------------|
F|------------------------|x|----------------------------------------|
C|--000-000---------------|2|-333-333------------222-222---2h3p2-----|
G|--000-000---5p0-8p7-----|-|-333-333-8p0-10p8---222-222-------------|
C|--000-000---------------|-|-333-333------------222-222-------------|
    ... ...                   ... ...            ... ...


CHORUS
D|-----------------------------------------|-|
A|-----------------------------------------|-|
F|-------------------5-55555---------------|x|
C|--0-00000000000000-5-55555--6-66666------|4|
G|--0-00000000000000-3-33333--6-66666------|-|
C|--0-00000000000000----------6-66666------|-|



BREAKDOWN
D|--------------------|-|
A|--------------------|-|
F|--------5~~---------|x|
C|--0~~~--5~~--6~~----|6|
G|--0~~~--3~~--6~~----|-|
C|--0~~~-------6~~----|-|



CHORUS
D|-----------------------------------------|-|
A|-----------------------------------------|-|
F|-------------------5-55555---------------|x|
C|--0-00000000000000-5-55555--6-66666------|4|
G|--0-00000000000000-3-33333--6-66666------|-|
C|--0-00000000000000----------6-66666------|-|


OUTRO
D|---------------------------------------|
A|---------------------------------------|
F|---------------------------------------|
C|--000-000---000-000--333-666-555---0---|
G|--000-000---000-000--333-666-555---0---|
C|--000-000---000-000--333-666-555---0---|            
Submit corrections


        Breathe lessons Hard to play? Try these video lessons and learn fast Breathe lessons
        
↑ Back to top | Tablatures and chords for acoustic guitar and electric guitar, ukulele, drums are parodies/interpretations of the original songs. You may use it for private study, scholarship, research or language learning purposes only