» » »

Kings Of Leon - Ragoo Tabs

Artists:  A B C D E F G H I J K L M N O P Q R S T U V W X Y Z # 

Ragoo Tabs

(ver. 1) Click to play this song!
Kings Of Leon
 Rating:
4.3/5 (29 votes)

 Ragoo lessons Tabs too difficult? Try these video lessons and learn fast
 
                [Intro]
PM----------------------------
e|---------------------------------------------------------------------------|
B|----7--7--7--7--7--3--3--3\2-2p0-------------------------------------------|
G|---7--7--7--7--7--4--4--4---2----------------------------------------------|
D|--0--0--0--0--0--0--0--0---0-----0-----------------------------------------|
A|---------------------------------------------------------------------------|
E|---------------------------------------------------------------------------|

[Verse]
Caleb - upstrokes.  What I hear is very subtle in the recording but I think he 
changes from a D to a Bm then to the G.  D and Bm are relatives of each other 
so they can sound very similar sometimes.  I think that's what happening here.
e|---------------------------------------------------------------------------|
B|x-10------x-7------x-3/----------------------------------------------------|
G|x-11------x-7------x-4/----------------------------------------------------|
D|x-12--x4--x-9--x2--x-5/----------------------------------------------------|
A|x-12------x-9------x-5/----------------------------------------------------|
E|---------------------3/----------------------------------------------------|

Matthew - fill riff that comes in on 2nd verse.  Bend the G string ever so 
slightly and release.
e|---------------------------------------------------------------------------|
B|--10-----------------------------------------------------------------------|
G|-----x-11-x-11-11br~~------------------------------------------------------|
D|-----0-0--0-0--0-----------------------------------------------------------|
A|---------------------------------------------------------------------------|
E|---------------------------------------------------------------------------|


[Chorus]
Caleb - basic changes: Bm > G > A
"Either way....you caught me whilst a-lyin'..."
e|---------------------------------------------------------------------------|
B|---------------------------------------------------------------------------|
G|--7--------------4---------6--------7--------------------------------------|
D|--9--------------5---------7--------9--------------------------------------|
A|--9--------------5---------7--------9--------------------------------------|
E|--7--------------3---------5--------7--------------------------------------|

Matthew - cool ascending lick
e|---------------------------------------------------------------------------|
B|---------------------------------------------------------------------------|
G|-----4--6--7---11--4--6--7--14---------------------------------------------|
D|---0---0--0--0----0--0--0--0---0-------------------------------------------|
A|-------pm-pm-pm---pm-pm-pm-pm--pm------------------------------------------|
E|---------------------------------------------------------------------------|


[Outro/Solo]
Matthew - he kinda goes off here with cool harmonics and two-string rips.  For
the harmonics, just bar your finger on the strings directly over the 7th fret
and let them ring out.
e|---------------------------------------------------------------------------|
B|------(7)------(7)------(7)------(7)------(7)------(7)------(7)------(7)---|
G|---(7)------(7)------(7)------(7)------(7)------(7)------(7)------(7)------|
D|(7)------(7)------(7)------(7)------(7)------(7)------(7)------(7)---------|
A|---------------------------------------------------------------------------|
E|---------------------------------------------------------------------------|
  A.H.------------------------------------------------------------------->

e|---------------------------------------------------------------------------|
B|-15--15-15-15-15-17-15--17--15-15-15-15-15-15------------------------------|
G|-14--14-14-14-14-14-14--14--14-14-14-14-16-14------------------------------|
D|---------------------------------------------------------------------------|
A|---------------------------------------------------------------------------|
E|---------------------------------------------------------------------------|

e|---------------------------------------------------------------------------|
B|-----(10)--(10)-------------(10)-------------------------------------------|
G|--11--11-11-11-11br---11--11-11-11-11--12p11----11-------------------------|
D|--0---0--0--0--0------0---0--0--0--0---0----12--0--------------------------|
A|---------------------------------------------------------------------------|
E|---------------------------------------------------------------------------|

            
Submit corrections


        Ragoo lessons Hard to play? Try these video lessons and learn fast Ragoo lessons
        
↑ Back to top | Tablatures and chords for acoustic guitar and electric guitar, ukulele, drums are parodies/interpretations of the original songs. You may use it for private study, scholarship, research or language learning purposes only