» » »

Kings Of Leon - Holy Roller Novocaine Tabs

Artists:  A B C D E F G H I J K L M N O P Q R S T U V W X Y Z # 

Holy Roller Novocaine Tabs

(ver. 1) Click to play this song!
Kings Of Leon
 Rating:
4/5 (5 votes)

 Holy Roller Novocaine lessons Tabs too difficult? Try these video lessons and learn fast
 
                (BASS AND DRUMS ONLY)
My darling you look lovely
I’ve come to lay you down
Uncover your head and submit to me
We’ll make a joyful sound


0:42 (lightly getting louder)
e|-----------------------------------------------------------------|
G|-----------------------------------------------------------------|
B|-----------------------------------------------------------------|
D|-2-2-2-2-2-2-2-2-2-2-2-2-2-2-2-2-5-5-5-5-5-5-5-5-5-5-5-5-5-5-5-5-|
A|-2-2-2-2-2-2-2-2-2-2-2-2-2-2-2-2-5-5-5-5-5-5-5-5-5-5-5-5-5-5-5-5-|
E|-0-0-0-0-0-0-0-0-0-0-0-0-0-0-0-0-3-3-3-3-3-3-3-3-3-3-3-3-3-3-3-3-|
I don’t care if you’re by yourself
Or you’re all alone when you need my help
Keep that smile on your pretty face
Cause you don’t have much I can’t take away


0:58
CHORUS PT1:
e|-----------------------------------|
G|-----------------------------------|
B|-5-5-5-5-5-5-5-5-5-3-3-3-3-3-3-3-3-|
D|-5-5-5-5-5-5-5-5-5-3-3-3-3-3-3-3-3-|
A|-3-3-3-3-3-3-3-3-3-1-1-1-1-1-1-1-1-|
E|-----------------------------------|x2
Don’t you worry baby
You won’t feel a thing
Close your eyes 


1:07
CHORUS PT2:
e|-----------------------------------------------------------------|
G|-----------------------------------------------------------------|
B|-----------------------------------------------------------------|
D|-2-2-2-2-2-2-2-2-2-2-2-2-2-2-2-2-5-5-5-5-5-5-5-5-5-5-5-5-5-5-5-5-|
A|-2-2-2-2-2-2-2-2-2-2-2-2-2-2-2-2-5-5-5-5-5-5-5-5-5-5-5-5-5-5-5-5-|
E|-0-0-0-0-0-0-0-0-0-0-0-0-0-0-0-0-3-3-3-3-3-3-3-3-3-3-3-3-3-3-3-3-|
Lord’s gonna get us back (x4)
I know, I know
Lord’s gonna get us back (x4)
I know, I know


1:25
e|-----------------------------------------------------------------|
G|-5-5-5-5-5-5-5-5-5-5-5-5-5-5-5-5-3-3-3-3-3-3-3-3-3-3-3-3-3-3-3-3-|
B|-----------------------------------------------------------------|
D|-----------------------------------------------------------------|
A|-----------------------------------------------------------------|
E|-----------------------------------------------------------------|(bending each)


1:34
e|-----------------------------------------------------------------|
G|-----------------------------------------------------------------|
B|-----------------------------------------------------------------|
D|-2-2-2-2-2-2-2-2-2-2-2-2-2-2-2-2-5-5-5-5-5-5-5-5-5-5-5-5-5-5-5-5-|
A|-2-2-2-2-2-2-2-2-2-2-2-2-2-2-2-2-5-5-5-5-5-5-5-5-5-5-5-5-5-5-5-5-|
E|-0-0-0-0-0-0-0-0-0-0-0-0-0-0-0-0-3-3-3-3-3-3-3-3-3-3-3-3-3-3-3-3-|
You’ll be hearin’ me comin’
But I can’t come inside
I’ll be out back in my white Cadillac
Won’t you join me for a ride
Let me take you up to the mountain top
There I’ll show all the goods I got
Don’t look back keep your eyes ahead
This could be the night that the moon goes red


2:09
CHORUS


2:35
e|------------------------------------------------------------------------------|
G|------------------------------------------------------------------------------|
B|--------------------------------------------------------------------1212121212|
D|-10-10-10-10-10-10-10-13-13-13-13-13-13-13-13--------------10-10-10-----------|
A|------------------------------------------------------------------------------|
E|----------------------------------------------5b-5b5b5b5\4--------------------|


HAND CLAPPING BIT
All the world is moanin’
And baby so am I
I’m just givin’ you warning
And I’m telling you why


3:16
CHORUS PT 2

then

3:34
e|-----------------------------------------------------------------|
G|-5-5-5-5-5-5-5-5-5-5-5-5-5-5-5-5-3-3-3-3-3-3-3-3-3-3-3-3-3-3-3-3-|
B|-----------------------------------------------------------------|
D|-----------------------------------------------------------------|
A|-----------------------------------------------------------------|
E|-----------------------------------------------------------------|(bending each)
while still singing 2nd part of chorus again. Let the last note ring.

Thats it, please rate it so I can see if you think its right.
Cheers, Rich
            
Submit corrections


        Holy Roller Novocaine lessons Hard to play? Try these video lessons and learn fast Holy Roller Novocaine lessons
        
↑ Back to top | Tablatures and chords for acoustic guitar and electric guitar, ukulele, drums are parodies/interpretations of the original songs. You may use it for private study, scholarship, research or language learning purposes only