» » »

Kings Of Leon - Fans Tabs

Artists:  A B C D E F G H I J K L M N O P Q R S T U V W X Y Z # 

Fans Tabs

(ver. 1) Click to play this song!
Kings Of Leon
 Rating:
4.3/5 (24 votes)

 Fans lessons Tabs too difficult? Try these video lessons and learn fast
 
                Stave 1:

E|----------------------------------------------------------------------------------|
B|------12------12----------12------12----------12------12----------12------12------|
G|--/13------14------13--13------14------13--13------14------13--13------14------13-|
D|----------------------------------------------------------------------------------|
A|----------------------------------------------------------------------------------|
E|----------------------------------------------------------------------------------|

Stave 2:

E|--------------------------------------------------------------|
B|-----4-----4--------4-----4--------4-----4--------4-----4-----|
G|\4-----6-----4--4-----6-----4--4-----6-----4--4-----6-----4---|
D|--------------------------------------------------------------|
A|--------------------------------------------------------------|
E|--------------------------------------------------------------|

Stave 3:

E|----------------------------------------------------------------------------------|
B|------12------12----------12------12----------12------12---------12---------------|
G|--13------14------13--13------14------13--13------14---------13--14b--14--14--13--|
D|----------------------------------------------------------------------------------|
A|----------------------------------------------------------------------------------|
E|----------------------------------------------------------------------------------|

Stave 4:

E|------------------------------------------------------------------------------------------------------|
B|---------16------16----------16------16----------16------16----------16------16------17---------------|
G|--16/16------18------16--16------18------16--16------18------16--16------18------16--16---------------|
D|------------------------------------------------------------------------------------------------------|
A|------------------------------------------------------------------------------------------------------|
E|------------------------------------------------------------------------------------------------------|

                                                                    
Submit corrections


        Fans lessons Hard to play? Try these video lessons and learn fast Fans lessons
        
↑ Back to top | Tablatures and chords for acoustic guitar and electric guitar, ukulele, drums are parodies/interpretations of the original songs. You may use it for private study, scholarship, research or language learning purposes only