» » »

Kings Of Leon - Eyes On You Tabs

Artists:  A B C D E F G H I J K L M N O P Q R S T U V W X Y Z # 

Eyes On You Tabs

(ver. 1) Click to play this song!
Kings Of Leon
 Rating:
4.3/5 (16 votes)

 Eyes On You  lessons Tabs too difficult? Try these video lessons and learn fast
 
                
INTRO - RIFF 1
******
e|-------------------|-------------------|---------------------|---------------------|
B|-10-8--------------|-10-8--------------|---------------------|---------------------|
G|------9-7-9-7-9-99-|------9-7-9-7-9-99-|-9-7-----------------|-9-7-----------------|
D|-------------------|-------------------|-----10-7-10----7-10-|-----10-7-10----7-10-|
A|-------------------|-------------------|-------------10------|-------------10------|
E|-------------------|-------------------|---------------------|---------------------|


e|-------------------|-------------------|---------------------|-------------|
B|-10-8--------------|-10-8--------------|---------------------|-------------|
G|------9-7-9-7-9-99-|------9-7-9-7-9-99-|-9-7-----------------|-9-7---------|
D|-------------------|-------------------|-----10-7-10----7-10-|-----10-7-10-|
A|-------------------|-------------------|-------------10------|-------------|
E|-------------------|-------------------|---------------------|-------------|


---------------------
VERSE 1 - No Guitar
********


00:42
e|-------------------|-------------------|---------------------|-------------|
B|-10-8--------------|-10-8--------------|---------------------|-------------|
G|------9-7-9-7-9-99-|------9-7-9-7-9-99-|-9-7-----------------|-9-7---------|
D|-------------------|-------------------|-----10-7-10----7-10-|-----10-7-10-|
A|-------------------|-------------------|-------------10------|-------------|
E|-------------------|-------------------|---------------------|-------------|


---------------------
VERSE 2 - No Guitar
********

01:04 half way through VERSE 2
e|------------|------------|------------|------------|
B|-------8--8-|-------8--8-|-------8--8-|-------8--8-|
G|-9--9-------|-9--9-------|-9--9-------|-9--9-------|
D|------------|------------|------------|------------|
A|------------|------------|------------|------------|
E|------------|------------|------------|------------|


---------------------
01:20
CHORUS - RIFF 2 
*******   Half way through CHORUS, not sure if this is a guitar, but here it is.
e|-------------|-------------|-------------|-------------|
B|-------------|-------------|-------------|-------------|
G|---9-10-9----|---9-10-9----|---9-10-9----|---9-10-9----|
D|-7--------10-|-7--------10-|-7--------10-|-7--------10-|
A|-------------|-------------|-------------|-------------|
E|-------------|-------------|-------------|-------------|

01:30
e|-------------|-------------|-------------|-------------|---|
B|-------------|-------------|-------------|-------------|---|
G|---9-10-9----|---9-10-9----|---9-10-9----|---9-10-9----|---|
D|-7--------10-|-7--------10-|-7--------10-|-7--------10-|-7-|
A|-------------|-------------|-------------|-------------|---|
E|-------------|-------------|-------------|-------------|---|


---------------------
01:36
RIFF 3
*******
e|----------------|------------|
B|----------------|------------|
G|-----s----------|------------|
D|-10~~\-3--5-----|------------|
A|------------0~~-|-3--5-------|
E|----------------|-------1~~~-|


---------------------
VERSE 3 - No Guitar
******** 

01:57 half way through VERSE 3
e|------------|------------|------------|------------|
B|-------8--8-|-------8--8-|-------8--8-|-------8--8-|
G|-9--9-------|-9--9-------|-9--9-------|-9--9-------|
D|------------|------------|------------|------------|
A|------------|------------|------------|------------|
E|------------|------------|------------|------------|


---------------------
02:12
CHORUS - RIFF 2 
*******   Half way through CHORUS, not sure if this is a guitar, but here it is.
e|-------------|-------------|-------------|-------------|
B|-------------|-------------|-------------|-------------|
G|---9-10-9----|---9-10-9----|---9-10-9----|---9-10-9----|
D|-7--------10-|-7--------10-|-7--------10-|-7--------10-|
A|-------------|-------------|-------------|-------------|
E|-------------|-------------|-------------|-------------|

02:23
e|-------------|-------------|-------------|-------------|---|
B|-------------|-------------|-------------|-------------|---|
G|---9-10-9----|---9-10-9----|---9-10-9----|---9-10-9----|---|
D|-7--------10-|-7--------10-|-7--------10-|-7--------10-|-7-|
A|-------------|-------------|-------------|-------------|---|
E|-------------|-------------|-------------|-------------|---|


---------------------
02:28
SOLO
*****
e|-------------------|------------|--b--15--rb------br------------------|
B|--------------b----|--b---rb----|-15-----15--13--15-------------------|
G|---s---12-14-14~~~-|-14--14-~~~-|-------------------14-12-------------|
D|-10\14-------------|------------|-------------------------15-14-12-10-|
A|-------------------|------------|-------------------------------------|
E|-------------------|------------|-------------------------------------|


e|---s---12----12----12-|----10----10----10-|--b-15--rb----b-------------------|
B|-10\13----12----12----|-10----10----10----|-15----15-13-15-------------------|
G|----------------------|-------------------|----------------14-12-------------|
D|----------------------|-------------------|----------------------15-14-12-10-|
A|----------------------|-------------------|----------------------------------|
E|----------------------|-------------------|----------------------------------|


VERSE 4 - No Guitar
********


---------------------
03:16
CHORUS - RIFF 2 
*******   Half way through CHORUS, not sure if this is a guitar, but here it is.
e|-------------|-------------|-------------|-------------|
B|-------------|-------------|-------------|-------------|
G|---9-10-9----|---9-10-9----|---9-10-9----|---9-10-9----|
D|-7--------10-|-7--------10-|-7--------10-|-7--------10-|
A|-------------|-------------|-------------|-------------|
E|-------------|-------------|-------------|-------------|


03:26
e|-------------|-------------|-------------|-------------|
B|-------------|-------------|-------------|-------------|
G|---9-10-9----|---9-10-9----|---9-10-9----|---9-10-9----|
D|-7--------10-|-7--------10-|-7--------10-|-7--------10-|
A|-------------|-------------|-------------|-------------|
E|-------------|-------------|-------------|-------------|


03:36
e|-------------|-------------|-------------|-------------|
B|-------------|-------------|-------------|-------------|
G|---9-10-9----|---9-10-9----|---9-10-9----|---9-10-9----|
D|-7--------10-|-7--------10-|-7--------10-|-7--------10-|
A|-------------|-------------|-------------|-------------|
E|-------------|-------------|-------------|-------------|


03:47
e|-------------|-------------|-------------|-------------|---|
B|-------------|-------------|-------------|-------------|---|
G|---9-10-9----|---9-10-9----|---9-10-9----|---9-10-9----|---|
D|-7--------10-|-7--------10-|-7--------10-|-7--------10-|-7-|
A|-------------|-------------|-------------|-------------|---|
E|-------------|-------------|-------------|-------------|---|


---------------------
03:52
RIFF 3
*******
e|----------------|------------|
B|----------------|------------|
G|-----s----------|------------|
D|-10~~\-3--5-----|------------|
A|------------0~~-|-3--5-------|
E|----------------|-------1~~~-|X4


e|-----------|
B|-----------|
G|-----------|
D|--s-s-s-s--|
A|-3\5\7/5/3-|
E|-----------|            
Submit corrections


        Eyes On You  lessons Hard to play? Try these video lessons and learn fast Eyes On You  lessons
        
↑ Back to top | Tablatures and chords for acoustic guitar and electric guitar, ukulele, drums are parodies/interpretations of the original songs. You may use it for private study, scholarship, research or language learning purposes only