» » »

Killswitch Engage - Eye Of The Storm Tabs

Artists:  A B C D E F G H I J K L M N O P Q R S T U V W X Y Z # 

Eye Of The Storm Tabs

(ver. 1) Click to play this song!
Killswitch Engage
 Rating:
4/5 (4 votes)

 Eye Of The Storm lessons Tabs too difficult? Try these video lessons and learn fast
 
                (Intro)

Drop C Tuning 

|-----------------------------------------------------|
|-----------------------------------------------------|
|-----------------------------------------------------|  
|------------3h5--------------------------------------|
|---3h5---------------3h5----5h6------3h5------1h3----|
|-------0000-----0000-----00-----0000-----0000--------| 
pm      ....     ....     ..     ....     ....   

|-----------------------------------------------------|
|-----------------------------------------------------|
|-----------------------------------------x-----------|  
|------------3h5--------------------------x--0-0-0----|
|---3h5---------------3h5----5h6----------x--0-0-0----|
|-------0000-----0000-----00-----0-0-0-0-----0-0-0----| 
        ....     ....     ..     . . . .     . . .
            
Submit corrections


        Eye Of The Storm lessons Hard to play? Try these video lessons and learn fast Eye Of The Storm lessons
        
↑ Back to top | Tablatures and chords for acoustic guitar and electric guitar, ukulele, drums are parodies/interpretations of the original songs. You may use it for private study, scholarship, research or language learning purposes only