Home » K » Killswitch Engage »

Killswitch Engage - Eye Of The Storm Bass

Artists:  A B C D E F G H I J K L M N O P Q R S T U V W X Y Z # 

Eye Of The Storm Bass

(ver. 1) Click to play this song!
Killswitch Engage


Tuning: Drop C

Intro
F|---|----------------|----------------|----------------|----------------|
C|---|------5---------|----------------|----------------|--------3-------|
G|12/|5-----------5---|6-----5-----3---|5---------------|(5)-------------|
C|---|----------------|----------------|0---------------|(0)-------3-3-3-|

Main Riff
F|--------------------------------|--------------------------------|
C|------------3h5-----------------|--------------------------------|
G|3h5---------------------3h5-----|5h6---------3h5---------1h3-----|
C|----0-0-0-0-----0-0-0-0-----0-0-|----0-0-0-0-----0-0-0-0-----0-0-|

F|--------------------------------|--------------------------------|
C|------------3h5-----------------|----------------3---------------|
G|3h5---------------------3h5-----|5h6-----------------------------|
C|----0-0-0-0-----0-0-0-0-----0-0-|----0-0-0-0-0-0-----3---3---3---|x2

Verse
F|---------------------------------------|--------------------------------------|
C|---------------------------------------|--------------------------------------|
G|---------------------------------------|--------------------------------------|
C|3/12-\-0-0-0-------0-0-3---0-0-0---0-0/|15--\-0-0-0-------0-0-7---3-3-3---3-3/|x4

Main Riff
F|--------------------------------|--------------------------------|
C|------------3h5-----------------|--------------------------------|
G|3h5---------------------3h5-----|5h6---------3h5---------1h3-----|
C|----0-0-0-0-----0-0-0-0-----0-0-|----0-0-0-0-----0-0-0-0-----0-0-|

F|--------------------------------|--------------------------------|
C|------------3h5-----------------|----------------3---------------|
G|3h5---------------------3h5-----|5h6-----------------------------|
C|----0-0-0-0-----0-0-0-0-----0-0-|----0-0-0-0-0-0-----3---3---3---|x2

Chorus
F|--------------------------------|--------------------------------|
C|------------7-----5-------5-7---|--------------------------------|
G|5-----8-----------------8-------|--------------------------------|
C|--0-0---0-0---0-0---0-0-------0-|----0-0-0-0-0-0-0-0-0-0-0-0-0-0-|

F|7-7-7-7-7-7-7-7-7-7-7-7-7-7-7---|--------------------------------|
C|--------------------------------|--------------------------------|
G|5-5-5-5-5-5-5-5-5-5-5-5-5-5-5---|--------------------------------|
C|------------------------------0-|----0-0-0-0-0-0-0-0-0-0-0-0-0-0-|

F|--------------------------------|--------------------------------|
C|------------7-----5-------5-7---|--------------------------------|
G|5-----8-----------------8-------|--------------------------------|
C|--0-0---0-0---0-0---0-0-------0-|----0-0-0-0-0-0-0-0-0-0-0-0-0-0-|

F|7-7-7-7-7-7-7-7-7-7-7-7-7-7-7---|--------------------------------|
C|--------------------------------|--------------------------------|
G|5-5-5-5-5-5-5-5-5-5-5-5-5-5-5---|----------------1-3-3-3-3-------|
C|------------------------------0-|----0-0-0-0-0-0-----------------|

Verse
F|---------------------------------------|--------------------------------------|
C|---------------------------------------|--------------------------------------|
G|---------------------------------------|--------------------------------------|
C|3/12-\-0-0-0-------0-0-3---0-0-0---0-0/|15--\-0-0-0-------0-0-7---3-3-3---3-3/|x4

Chorus
F|--------------------------------|--------------------------------|
C|------------7-----5-------5-7---|--------------------------------|
G|5-----8-----------------8-------|--------------------------------|
C|--0-0---0-0---0-0---0-0-------0-|----0-0-0-0-0-0-0-0-0-0-0-0-0-0-|

F|7-7-7-7-7-7-7-7-7-7-7-7-7-7-7---|--------------------------------|
C|--------------------------------|--------------------------------|
G|5-5-5-5-5-5-5-5-5-5-5-5-5-5-5---|--------------------------------|
C|------------------------------0-|----0-0-0-0-0-0-0-0-0-0-0-0-0-0-|

F|--------------------------------|--------------------------------|
C|------------7-----5-------5-7---|--------------------------------|
G|5-----8-----------------8-------|--------------------------------|
C|--0-0---0-0---0-0---0-0-------0-|----0-0-0-0-0-0-0-0-0-0-0-0-0-0-|

F|7-7-7-7-7-7-7-7-7-7-7-7-7-7-7---|--------------------------------|
C|--------------------------------|--------------------------------|
G|5-5-5-5-5-5-5-5-5-5-5-5-5-5-5---|--------------------------------|
C|------------------------------0-|----0-0-0-0-0-0-0-0-0-0-0-0-0-0-|

Bass Solo
F|--------------------------------|
C|--------3-5---------------------|
G|--3-5---------3-5---5-6-----1-3-|
C|0-----0-----0-----0-----0-0-----|x4

Breakdown
F|--------------------------------|--------------------------------|
C|--------3-5---------------------|--------3-5---------------------|
G|--3-5---------3-5---5-6---------|--3-5---------3-5---1-3---------|
C|0-----0-----0-----0-----0-0-0-0-|0-----0-----0-----0-----0-0-1-1-|x2

Guitar/Bass
F|--------------------------------|--------------------------------|
C|--------3-5---------------------|--------3-5---------------------|
G|--3-5---------3-5---5-6---------|--3-5---------3-----------------|
C|0-----0-----0-----0-----0-0-0-0-|0-----0-----0---5-5-5-5-1-1-1-1-|x2

Or

Rhythm Guitar/Bass
F|----------------------------------------------------------------|
C|----------------------------------------------------------------|
G|----------------------------------------------------------------|
C|0-0-0-0-0-0-0-0-0-0-0-0-0-0-0-0-0-0-0-0-0-0-0-0-5-5-5-5-1-1-1-1-|

Chorus         quick slide (just to add legato effect)
F|-----------------------------------------|--------------------------------|
C|----------7--10/12---10h12p10-7-8-7------|--------------------------------|
G|5-----8-----------------------------10-8-|--------------------------------|
C|--0-0---0---0----------------------------|----0-0-0-0-0-0-0-0-0-0-0-0-0-0-|

F|7-7-7-7-7-7-7-7-7-7-7-7-7-7-7---|--------------------------------|
C|--------------------------------|--------------------------------|
G|5-5-5-5-5-5-5-5-5-5-5-5-5-5-5---|--------------------------------|
C|------------------------------0-|----0-0-0-0-0-0-0-0-0-0-0-0-0-0-|

F|--------------------------------|--------------------------------|
C|------------7-----5-------5-7---|--------------------------------|
G|5-----8-----------------8-------|--------------------------------|
C|--0-0---0-0---0-0---0-0-------0-|----0-0-0-0-0-0-0-0-0-0-0-0-0-0-|

F|7-7-7-7-7-7-7-7-7-7-7-7-7-7-7---|--------------------------------|
C|--------------------------------|--------------------------------|
G|5-5-5-5-5-5-5-5-5-5-5-5-5-5-5---|--------------------------------|
C|------------------------------0-|----0-0-0-0-0-0-8-7-5-3-7-5-3-2-|
                                                   ritardando.

Outro
F|--------------------------------|--------------------------------|
C|--------3-5---------------------|--------3-5---------------------|
G|--3-5---------3-5---5-6---------|--3-5---------3-5---1-3---------|
C|0-----0-----0-----0-----0-0-0-0-|0-----0-----0-----0-----0-1-1-1-|

F|--------------------------------|--------------------------------|
C|--------3-5---------------------|--------3-5---------------------|
G|--3-5---------3-5---5-6---------|--3-5---------------------------|
C|0-----0-----0-----0-----0-0-0-0-|0-----0-----0-0-8-7-5-3-7-5-3-2-|
                                                  ritardando.

F|----------------------------------------------------------------|
C|----------------------------------------3h5---------------------|
G|----------------------------------------------------------------|
C|0-0-0-0-0-0-0-0-0-0-0-0-0-0-0-0-0-0-0-0-----0-0-5-5-5-5-1-1-1-1-|

F|----------------------------------------------------------------|-----|
C|----------------------------------------3h5---------------------|-----|
G|----------------------------------------------------------------|-----|
C|0-0-0-0-0-0-0-0-0-0-0-0-0-0-0-0-0-0-0-0-----0-0-8-7-5-3-7-5-3-2-|0----|



| /  slide up
| \  slide down
| h  hammer-on
| p  pull-off
| ~  vibrato
| +  harmonic
| x  Mute note
            
Submit corrections

↑ Back to top | Tablatures and chords for acoustic guitar and electric guitar, ukulele, drums are parodies/interpretations of the original songs. You may use it for private study, scholarship, research or language learning purposes only