» » »

Killswitch Engage - Eye Of The Storm Tabs

Artists:  A B C D E F G H I J K L M N O P Q R S T U V W X Y Z # 

Eye Of The Storm Tabs

(ver. 3) Click to play this song!
Killswitch Engage
 Rating:
4/5 (4 votes)

 Eye Of The Storm lessons Tabs too difficult? Try these video lessons and learn fast
 
                Band-Killswitch Engage
Album-As Daylight Dies
Song-Eye of The Storm

Tuning-Drop C (CGCFAD)

The only part that is missing the second guitar part during the verse. Once I get that 
out Ill post it.

Intro (One guitar plays this while the other hits open C) (Repeat as needed)
|-----------------------------------------------------|
|-----------------------------------------------------|
|-----------------------------------------------------|
|------------3h5--------------------------------------|
|---3h5---------------3h5----5h6------3h5------1h3----|
|-------0000-----0000-----00-----0000-----0000--------|
PM      ....     ....     ..     ....     ....

|------------------------------------------------------|
|-----------------------------------------3*-----------|
|-----------------------------------------3*-----------|
|------------3h5--------------------------3*--0-0-0----|
|---3h5---------------3h5----5h6----------3*--0-0-0----|
|-------0000-----0000-----00-----0-0-0-0------0-0-0----|
PM      ....     ....     ..     . . . .      . . .

Verse
|-------------------------------------------|
|-------------------------------------------|
|-------------------------------------------|
|-7\\------7-------10\\----101010-------7\\-|
|-5\\------5-------10\\----101010-875-535\\-|
|--------00--000-008-\\----8-8-8--875-53----|
PM       ..  ... ..        . .    ... ..

Repeat Intro

Chorus (Guitar 1)
|----------------------------------------------------------|
|----------------------------------------------------------|
|----------------------------------------------------------|
|----------------------------------------------------------|
|-8-----10-----12-----13-----8h10h12-0~--0-0-0-0-0-0-0-0-0-|
|---8-8----8-8----8-8----8-8---------0~--0-0-0-0-0-0-0-0-0-|
PM  . .    . .    . .    . .            . . . . . . . . .

|-8~-------8~-----------------------------|
|----6~-------6~--------------------------|
|-------9~-------9~-----------------------|
|-----------------------------------------|
|-------------------0~--0-0-0-0-0-0-0-0-0-|
|-------------------0~--0-0-0-0-0-0-0-0-0-|
PM                      . . . . . . . . .

Chorus (Guitar 2)
|------------------------------------------------------|
|------------------------------------------------------|
|------------------------------------------------------|
|------------------------------------------------------|
|-5-----7-----8-----10-----5h7h8-0~--0-0-0-0-0-0-0-0-0-|
|---8-8---8-8---8-8----8-8-------0~--0-0-0-0-0-0-0-0-0-|
PM  . .   . .   . .    . .           . . . . . . . . .

|------------------------------------------------|
|------------------------------------------------|
|------------------------------------------------|
|-3---3---3---5---5---5--------------------------|
|-1---1---1---3---3---3----0~--0-0-0-0-0-0-0-0-0-|
|----0---0---0---0---0---0-0~--0-0-0-0-0-0-0-0-0-|
PM   .   .   .   .   .   .     . . . . . . . . .

Chorus Fill (Both Guitars)
|-----------|
|-----------|
|-----------|
|-5-5-5-5-5-|
|-3-3-3-3-3-|
|-----------|

Repeat Verse
Repeat Chorus

Interlude (during bass part)
|---------------------------------------------------|
|------------------------------------------3*-------|
|------------------------------------------3*-------|
|------------------------------------------3*-------|
|-0~---------------------------------------3*-0-0-0-|
|-0~------------------------------------------0-0-0-|

Interlude (Con't)
|---------------------------------------------------------------------|
|---------------------------------------------------------------------|
|---------------------------------------------------------------------|
|---5/7---10/12---5/7---7/8-----------5/7---10/12---5/7---3/5---------|
|---3/5---8-/10---3/5---5/6-----------3/5---8-/10---3/5---1/3---------|
|-0-----0-------0-----0-----0-0-0-0-0-----0-------0-----0-----0-0-0-0-|
PM.     .       .     .     . . . . .     .       .     .     . . . .

Interlude (Guitar 2) (Last 2 times)
|---------------------------------------------------------------------|
|---------------------------------------------------------------------|
|---------------------------------------------------------------------|
|---------------------------------------------------------------------|
|-0-0-0-0-0-0-0-0-0-0-0-0-0-0-0-0-0-0-0-0-0-0-0-0-0-0-3-3-3-3-2-2-2-2-|
|-0-0-0-0-0-0-0-0-0-0-0-0-0-0-0-0-0-0-0-0-0-0-0-0-0-0-5-5-5-5-3-3-3-3-|
PM. . . . . . . . . . . . . . . . . . . . . . . . . . . . . . . . . .

Last Chorus (Guitar 1)
|------------------------------------------------------------------------|
|------------------------------------------------------------------------|
|------------------------------------------------------------------------|
|---------------------10h12--10h12p10----10------------------------------|
|-8-----10-----12---------------------12----12-10-8-7-5-0~-0-0-0-0-0-0-0-|
|---8-8----8-8----8-8-----------------------------------0~-0-0-0-0-0-0-0-|
PM  . .    . .    . .                                      . . . . . . .

|-8~-------8~-----------------------------|
|----6~-------6~--------------------------|
|-------9~-------9~-----------------------|
|-----------------------------------------|
|-------------------0~--0-0-0-0-0-0-0-0-0-|
|-------------------0~--0-0-0-0-0-0-0-0-0-|
PM                      . . . . . . . . .

|----------------------------------------------------------|
|----------------------------------------------------------|
|----------------------------------------------------------|
|----------------------------------------------------------|
|-8-----10-----12-----13-----8h10h12-0~--0-0-0-0-0-0-0-0-0-|
|---8-8----8-8----8-8----8-8---------0~--0-0-0-0-0-0-0-0-0-|
PM  . .    . .    . .    . .            . . . . . . . . .

|-8~-------8~-----------------------------|
|----6~-------6~--------------------------|
|-------9~-------9~-----------------------|
|-----------------------------------------|
|-------------------0~--0-0-0-0-0-0-0-0-0-|
|-------------------0~--0-0-0-0-0-0-0-0-0-|
PM                      . . . . . . . . .

Last Chorus (Guitar 2)
|------------------------------------------------------------|
|------------------------------------------------------------|
|------------------------------------------------------------|
|--------------------7h8--7h8p7---7--------------------------|
|--5-----7-----8----------------8---8-7-5-3-0~-0-0-0-0-0-0-0-|
|----8-8---8-8---8-8------------------------0~-0-0-0-0-0-0-0-|
PM   . .   . .   . .                           . . . . . . .

|------------------------------------------------|
|------------------------------------------------|
|------------------------------------------------|
|-3---3---3---5---5---5--------------------------|
|-1---1---1---3---3---3----0~--0-0-0-0-0-0-0-0-0-|
|----0---0---0---0---0---0-0~--0-0-0-0-0-0-0-0-0-|
PM   .   .   .   .   .   .     . . . . . . . . .

|------------------------------------------------------|
|------------------------------------------------------|
|------------------------------------------------------|
|------------------------------------------------------|
|-5-----7-----8-----10-----5h7h8-0~--0-0-0-0-0-0-0-0-0-|
|---8-8---8-8---8-8----8-8-------0~--0-0-0-0-0-0-0-0-0-|
PM  . .   . .   . .    . .           . . . . . . . . .

|------------------------------------------------|
|------------------------------------------------|
|------------------------------------------------|
|-3---3---3---5---5---5--------------------------|
|-1---1---1---3---3---3----0~--0-0-0-0-0-0-0-0-0-|
|----0---0---0---0---0---0-0~--0-0-0-0-0-0-0-0-0-|
PM   .   .   .   .   .   .     . . . . . . . . .

End of Last Chorus (Both guitars)
|-----------------|
|-----------------|
|-----------------|
|-----------------|
|-8-7-5-3-7-5-3-2-|
|-8-7-5-3-7-5-3-2-|
PM. . . . . . . .

Repeat Interlude

Outro
|---------------------------------------------------------------------|
|---------------------------------------------------------------------|
|---------------------------------------------------------------------|
|---------------------------------------------------------------------|
|-0-0-0-0-0-0-0-0-0-0-0-0-0-0-0-0-0-0-0-0-0-0-0-0-0-0-3-3-3-3-2-2-2-2-|
|-0-0-0-0-0-0-0-0-0-0-0-0-0-0-0-0-0-0-0-0-0-0-0-0-0-0-5-5-5-5-3-3-3-3-|
PM. . . . . . . . . . . . . . . . . . . . . . . . . . . . . . . . . .

|---------------------------------------------------------------------|
|---------------------------------------------------------------------|
|---------------------------------------------------------------------|
|---------------------------------------------------------------------|
|-0-0-0-0-0-0-0-0-0-0-0-0-0-0-0-0-0-0-0-0-0-0-0-0-0-0-8-7-5-3-7-5-3-2-|
|-0-0-0-0-0-0-0-0-0-0-0-0-0-0-0-0-0-0-0-0-0-0-0-0-0-0-8-7-5-3-7-5-3-2-|
PM. . . . . . . . . . . . . . . . . . . . . . . . . . . . . . . . . .

End On
|-----------|
|-----------|
|-----------|
|-----------|
|-0~--0-0-0-|
|-0~--0-0-0-|
PM    . . .
            
Submit corrections


        Eye Of The Storm lessons Hard to play? Try these video lessons and learn fast Eye Of The Storm lessons
        
↑ Back to top | Tablatures and chords for acoustic guitar and electric guitar, ukulele, drums are parodies/interpretations of the original songs. You may use it for private study, scholarship, research or language learning purposes only